Pardon Me (Acustic)

Solo Chitarra

Accordatura: Standard (E A D G B E)
Chitarra: 6 Corde acustica


Intro
E|----------------------------------------------------------0-00--|
B|--------0----------------0----------------0---------------0-00--|
D|----4-----4-----------4----4----------4-----4-----------4-------|
G|--2---2-----2-------2---2----2------2---2-----2-------2---------|
A|4-------------4---------------4--4---------------4--------------|
E|-----------------5----------------------------------5-----------|

Pre Verse
E|-------------0--------------------------------0----------------------|
B|-------------0--------------------------------0----------------------|
D|6-666-66--22-2--6-666-66--22-----6-666-66--22-2--6-666-66--99--------|
G|6-666-66--22-2--6-666-66--22-----6-666-66--22-2--6-666-66--99-99-88--|
A|4-444-44--00-0--4-444-44--00-2---4-444-44--00-0--4-444-44--77-99-88--|
E|-----------------------------0--------------------------------77-66--|

Verse
E|----------------------------------00-------------00----00-----------0----44--|
B|------77-----77-------------------00-------------00----00-----------0----44--|
D|------44-----44-----66-----66-----88-----88------99----99-------8--------44--|
G|---6--66-----66-----55-----55-----66-----99------77----77-----6----------66--|
A|----------7--77--6--66--6--66--4--44-----99---5--55--5-55---4------------66--|
E|--------------------------------------7--77---------------------------4--44--|

E|--------------------------------2-2--|
B|------99----99------77--------2-2-2--|
D|------88----88--------------4--------|
G|------99----99------88----4----------|
A|---7--77--7-77--6---66---2-----------|
E|-------------------------------------|

Fill 1

E|--0-0--0000-0-0-00--|
B|--0-0--0000-0-0-00--|
D|--2-2--2222-2-2-22--|
G|--2-2--2222-2-2-22--|
A|--0 0--0000-0-0-00--|
E|--------------------|

Chorus
-|-------PLAY THIS PART TWICE------|
E|------------------0--------------|---------------------0--0-|
B|------------------0--------------|---------------------0--0-|
D|6-666-66--44--2-2-2--------------|-6-666-66-22-44-4--4------|
G|6-666-66--44--2-2-2--------------|-6-666-66-22-44-4--4------|
A|4-444-44--22--0-0-0--4-222-4-000-|-4-444-44-00-22-2--2------|
E|---------------------2-000-2-000-|--------------------------|

E|------------------------------------|
B|------------------------------------|
D|6-666-66--22-44--4--4---------------|
G|6-666-44--00-22--2--4---------------|
A|4-444-44--00-22--2--2--4-222-4-222--|
E|-----------------------2-000-2-000--|

Fill 2

E|-----------|
B|-----------|
D|-----------|
G|-----------|
A|--66---22--|
E|--44---00--|

Fill 3
E|----0----0----0---0---|
B|---0-0--0-0--0-0-0-0--|
D|--6---6----6----6-----|
G|----------------------|
A|----------------------|
E|----------------------|

Ending
E|-------------0---------------------------------------------------------|
B|-------------0---------------------------------------------------------|
D|6-666-66--22-2--6-666-66--22-----6-666-66--99----------6-666-66-22-----|
G|6-666-66--22-2--6-666-66--22-----6-666-66--99----------6-666-66-22-----|
A|4-444-44--00-0--4-444-44--00-2---4-444-44--77--99-88---4-444-44-00--2--|
E|-----------------------------0-----------------77-66----------------0--|

Song Structure:
intro
Pre-Verse
Verse
Fill 1
Chorus
Fill 2
Verse
Fill 1
Chorus
Intro
Fill 3
Chorus
Ending
 

Stellar (Acoustic)

Solo Chitarra

Accordatura: Standard (E A D G B E)
Chitarra: Austica


-Song progression is:
Intro/verse1 (4 1/2x)
Pre-Chorus (1x)
Chorus (2x)
Post-Chorus (2x)
verse2 (4 1/2x)
Pre-chorus (1x)
Chorus (2x)
pre-breakdown (2x)
Breakdown (2x)
Chorus (2x)
pre-breakdown (1x)
Ending (1x)


_________________________________________________
 


Intro/Verse1
|-----------------------------------------|
|-----------------------------------------|
|-------9-/-11-11(b)--6(b)----------------|
|-----9---/-11-11(b)--6(b)-6----6-6---6/7-|
|--0----------------------------4-4-----5-|
|-----------------------------------------|

|-----------------------------------------|
|-----------------------------------------|
|-----9-/-11-11(B)--6(b)-------6-6-----6--|
|---9---/-11-11(b)--6(b)--4-4------7-7----|
|-0---------------------------------------|
|-----------------------------------------|
Pre-Chorus
|------------------------------------|
|------------------------------------|
|-7-7-777-7-77-77--4-4-444-4-44-444--|
|-7-7-777-7-77-77--4-4-444-4-44-444--|
|-5-5-555-5-55-55--2-2-222-2-22-222--|
|------------------------------------|
Chorus
|---00----00---------------------|
|---00----00---------------------|
|---22----22---------------------|
|2--22--2-22---------6-6-----6---|
|0--00--0-00-----4-4-----7-7-----|
|--------------------------------|

|--00----00----------------------|
|--00----00----------------------|
|--22----22----------------------|
|2-22--2-22-------6-6---6/7------|
|0-00--0-00---4-4-----5----------|
|--------------------------------|
Post chorus
|-------------------------------------|
|-------------------------------------|
|------9--/11-11------------9--/6-6---|
|----9----/11-11----------9----/6-6---|
|--0--------------------0-------------|
|-------------------------------------|
Verse2
|-----------------------------------------|
|-----------------------------------------|
|-----9-/-11-11(B)--6(b)-------6-6-----6--|
|---9---/-11-11(b)--6(b)--4-4------7-7----|
|-0---------------------------------------|
|-----------------------------------------|

|-----------------------------------------|
|-----------------------------------------|
|-------9-/-11-11(b)--6(b)----------------|
|-----9---/-11-11(b)--6(b)-6----6-6---6/7-|
|--0------------------------4-4-----5-----|
|-----------------------------------------|
Pre-Breakdown
|---0----0-------------------|
|---0----0-------------------|
|---2----2-----6-------------|
|-2-2--2-2-----6--6-----6----|
|-0-0--0-0-----4--6-----6----|
|-----------------4--00-4----|
Breakdown
|----------------------------------------|
|----------------------------------------|
|------------------------------------0---|
|-----0--0---------0-0-----------0---0---|
|---7------7-----7-----7-------5-----5---|
|-5----------5-5---------5---3-----3-3---|

|-------------------------------0--|
|-------------------------------0--|
|-------------------------------4--|
|-----2-2--------2-2---------5--5--|
|---2----2-----2-----2-----5----5--|
|-0--------0-0---------0-3------3--|
Finale
|--------------------------------|----------------|
|--------------------------------|----------------|
|--66---------------66-----------|---Let Ring-----|
|--66--66----6/7----66--66---6/7-|--9-->----------|
|--44--66----6/7----44--66---6/7-|--7-->----------|
|------44-0--4/5--------44-0-4/5-|--5-->----------|

Song Structure:
Intro/verse1 (4 1/2x)
Pre-Chorus (1x)
Chorus (2x)
Post-Chorus (2x)
verse2 (4 1/2x)
Pre-chorus (1x)
Chorus (2x)
pre-breakdown (2x)
Breakdown (2x)
Chorus (2x)
pre-breakdown (1x)
Ending (1x)
 

Make Yourself (Acoustic)

Solo Chitarra

Accordatura: Standard (E A D G B E)
Chitarra: 6 Corde Acustica


Intro/Verse
E|----------------------------------------
B|----------------------------------------
D|----------------------------------------
G|--9----55---55--------9--55---55--------
A|--9----55---55---5-7--9--55---55--5577--
E|--7----33-0-33---6-6--7--33-0-33--6666--

post-verse
(played After first verse)
E|----------------------------
B|----------------------------
D|--7-7-7--33-33--------------
G|--7-7-7--33-33---5-5-5--55--
A|--5-5-5--11-11---5-5-5--55--
E|-----------------3-3-3--33--

Chorus
E|------------------------------------------------------------
B|------------------------------------------------------------
D|--7-7-7--33-33------------------7-7-7--33-33----------------
G|--7-7-7--33-33---5-5-5--55--55--7-7-7--33-33-5-5-5--33--33--
A|--5-5-5--11-11---5-5-5--55--55--5-5-5--11-11-5-5-5--33--33--
E|-----------------3-3-3--33--33---------------3-3-3--11--11--

E|--------------------------------------------------------
B|--------------------------------------------------------
D|--7-7-7--33-33----------55-55------7-7------------------
G|--7-7-7--33-33---5-5-5--55-55------7-7-7--33-33--5-5-5--
A|--5-5-5--11-11---5-5-5--33-33------5-5-5--11-11--5-5-5--
E|-----------------3-3-3---------------------------3-3-3--

BreakDown
1st part:

E|-----------------------------------------------------
B|-----------------------------------------------------
D|-----------------------------------------------------
G|--7-------9------5----------5-----7-----9---5--5577--
A|--9-------7------7----------7-----9-----7---7--7777--
E|----------------------------6------------------6666--

2nd part
E|----------------------|--------|---
B|----------------------|--------|---
G|----------------------|--------|---
D|---7----9---------5---|--5-5-5-|---
A|---9----7---------7---|--------|---
E|----------------------|--6-6-6-|---

E|----------------------------------
B|----------------------------------
G|----------------------------------
D|--9-----55------55----55---5-5-5--
A|--9-----55------55----55----------
E|--7-----33---0--33--0-33---6-6-6--

Ending
E|------------------------
B|------------------------
D|------------------------
G|--9----55---55----------
A|--9----55---55----5577--
E|--7----33-0-33----6666--



Song Structure:
intro/verse
post-verse
intro/verse
Chorus
1st Breakdown
2nd Breakdown
Chorus
Ending
 

Crowded Elevator


Chitarra

TABBED BY: Ryan Hegenauer (Questo indirizzo email è protetto dagli spambots. È necessario abilitare JavaScript per vederlo.)
----------------------------------------------------------------


Accordatura: E A D G B E
Chitarra: 6 Corde Elettrica


-A-
SUONO PULITO COME IL PHASE QUI


D----------------------0~~~-II
A------7---7b8-------5------II
E-0-0----0-----5-4-4--------II


la parte in distorsione...
D-----7---6-----7---6----------II
A---7---7-----7---7---7---7--2-II
E-0---------0-----------4----0-II


e-0-0-0-0-0-0-0-----------------------II
B-5-5-5-5-5-5-5-----------------------II
G-------------------------------------II
D-------------------7-7-----7-7-------II
A---------------5-5-5-5-5-5-5-5-2~~~~-II
E---------------3-3-----3-3-----0~~~~-II


SUONARE -A- UN BEL PO',,, POI....
e-0-0-0-0-0-0-0-0-0-0-
B-5-5-5-5-5-5-5-5-5-5-......


POI LA PARTE-A- FINO ALLA DISTORSIONE..


D-----------------7-7-----7-7-----II
A-2----5---7--6-6-5-5-6-6-5-5-2~~-II
E-0--4---4----4-4-----4-4-----0~~-II


e-0-0-0-0-0-0---------------------II
B-5-5-5-5-5-5---------------------II
G---------------------------------II
D-----------------7-7-----7-7-----II
A-------------5-5-5-5-5-5-5-5-2~~-II
E-------------3-3-----3-3-----0~~-II


INTERMEZZO
e-----3-----3-----6-----6-II
B---3-----3-----5-----5--*II
G------------------------*II
D-2-----2-----5-----5-----II


Basso

TABBED BY: Ryan Hegenauer (Questo indirizzo email è protetto dagli spambots. È necessario abilitare JavaScript per vederlo.)
----------------------------------------------------------------
Accordatura: E A D G
Basso: 4 Corde


II--------------II D-----7---6-----7---6-----------II
II-GUITAR-INTRO-II A---7---7-----7---7---7---7-----II
II--------------II E-0---------0-----------4---0~~-II


A--------------------5-5-----5-5-----II
E-0-2-0--0-1-2---3-3-----3-3-----0~~-II


VERSE
G-------14----13----------------9-II
D----14----14---------------------II
A-----------------XX-11-11-9-11---II
E-12------------------------------II X4


THEN OCTIVE DOWN
G-----2---1------------II
D---2---2------------2-II
A----------------------II
E-0---------4-4--2-4---II


D-222---------------II
A-----3333-2222-000-II


A------5-6-7--------5-5-----5-5-----II
E-0--0----------4-4-----4-4-----0~~-II


A-------------------5-5-----5-5-----II
E-0-1-2--0-1-2--3-3-----3-3-----0~~-II


INTERMEZZO
G---------------0-0-0-0-----------II
D-2-2-2-----------------1-1-1-1-1-II
A-------3-3-3-3-------------------II
 

Favorite Things (Live)


TABBED BY: Ryan Hegenauer (Questo indirizzo email è protetto dagli spambots. È necessario abilitare JavaScript per vederlo.)
----------------------------------------------------------------


Accordatura: E A D G B E
Chitarra: 6 Corde Elettrica


La maggior parte in distorsione


e-5-0-5-6-6-0-5-5-II
B-5-0-5-6-6-0-5-5-II


D------77----------88--II
A--------77------77----II
E-5555------6666-------II


CHORUS
D-----10-10--------------II
A-7-7-8--8--7-7-8-8-3-3--II
E-5-5-8--8--5-5-6-6-1-1--II


Basso

Tabbed by Spooney (Questo indirizzo email è protetto dagli spambots. È necessario abilitare JavaScript per vederlo.)
- - - - - - - - - - - - - - - - - - - - - - - - - - - - - - - - - - - - - - - - - - - - - - - - - - - - - - - - - - - - - - - - - - - - - - - - - - - - - - - - - -


Accordatura: E A D G
Basso: 4 Corde


E' difficile sentire il basso nel verso, questo è motivo per cui ho aggiunto una parte che segue la chitarra. Se ascoltate When Incubus Attacks si sente meglio che in Science


Main riff (also played through the verse)
G|-----------------------------------------------------------|
D|-----------------------------------------------------------|
A|-0---0-1---1------------------0---0-1---1------------------|
E|---0-----1---5555-5-0-1-2-3-4---0-----1---6666-6-0-1-2-3-4-|


Main riff variations
G|-----------------------------------------------------------|
D|-----------------------------------------------------------|
A|-0---0-1---1------------------0---0-1---1------------------|
E|---0-----1---5555-5-0-xxxxxxx---0-----1---6666-6-0-xxxxxxx-|


G|-------------------------------------------------------|
D|-------------------------------------------------------|
A|-0---0-1---1----------------0---0-1---1----------------|
E|---0-----1---5555-5-3-333-3---0-----1---6666-6-3-333-3-|


Fast break
G|-----------------------|
D|-----------------------|
A|---------77------88----|
E|-5555-66----6666----77-|


Chorus
G|------------------------|------------------------|
D|------------------------|------------------------|
A|------/8-88-----------8-|------/8-88-------------|
E|-5-55-------5-5-6-66/---|-5-55-------5-5-6-6-66--|


Slow down riff (after the first chorus)
G|------------------------------------------|
D|------------------------------------------|
A|-5---55---4---44---3---33---1---11-(hold)-|
E|---5----5---4----4---3----3---1-----------|


Taken from The Bass Tab Archive ~ http://www.basstabarchive.com
 

Pardon Me (Live)

Chitarra

TABBED BY: Ryan Hegenauer (Questo indirizzo email è protetto dagli spambots. È necessario abilitare JavaScript per vederlo.)
----------------------------------------------------------------
Accordatura: D A D G B E)
Chitarra: 6 Corde Elettrica

 

All'inizio usa un phase/flange/delay*
e dopo una normale distorsione**
*
G-----------------------9-II
D-2-----7-----2-----7---7-II
A-4-----7-----4-----7---7-II
D-------7-----------7-----II
^^^^QUI TIENE LA NOTA CON LA MANO SINISTRA E ALZA IL VOLUME CON LA MANO DESTRA ^^^^^^^


...QUINDI LA DISTORSIONE... QUESTE SONO LE NOTE...
VOI IMMAGINATE IL RITMO


D-11---7---11---7--2-II
A-11---7---11---7--2-II
D-11---7---11---7--2-II


D-11---7---11---14---9---7--II
A-11---7---11---14---9---7--II
D-11---7---11---14---9---7--II


VERSE:
G------------13------7---9---9-II
D-13----13---13------7-------9-II
A-11----11---11------5-------7-II
D-------13---------------------II


^^QUESTA ^ QUESTA NOTA SONO CON L'ECO


CHORUS:
(AGAIN NO RYTHYMS TYPED)
D-11----9---7---4-2-2-4-4-2-2-/-II
A-11----9---7---4-2-2-4-4-2-2-/-II
D-11----9---7---4-2-2-4-4-2-2-/-II X2


D-11---7--9--14--II D-11---7---9--4-2-2-4-4-2-2-II
A-11---7--9--14--II A-11---7---9--4-2-2-4-4-2-2-II
D-11---7--9--14--II D-11---7---9--4-2-2-4-4-2-2-II


Basso

Accordatura: B E A D G
Basso: 5 Corde


Intro
Niente linea di basso...
Poi...
G-----------------------------------------------------------------------
D-----------------------------------------------------------------------
A-----------------------------------------------------------------------
E--9------5------9------5---\---12--------------------------------------
B-----------------------------------------------------------------------

G------------------------------------------------------------------------
D------------------------------------------------------------------------
A------------------------------------------------------------------------
E--9------5------9------5---\---12---------------------------------------
B------------------------------------------------------------------------

G------------------------------------------------------------------------
D------------------------------------------------------------------------
A------------------------------------------------------------------------
E--9------5--5--5--5--5--5--9--9--9--9--9--9--5--5--5--0--0--0-----------
B------------------------------------------------------------------------

Bridge to Verse
G-----------------------------------------------------------------------------------------
D-----------------------------------------------------------------------------------2-2-2-
A-4-4-4-4-4-4--0-0-0-4-4-4-4-4-4-0-0---4-4-4-4-4-4--0-0-0-4-4-4-4-4---------2-0-----------
E---------------------------------------------0-------------------------------------------
B-----------------------------------------------------------------------------------------

Verse
G--------------------------------------------------------------------------------
D--------------------------------------------------------------------------------
A------------6-6-6-6~4-4-2-2-----~5-5-5-5-5-5-5-5-5-5~4-4----~7-7-7-7-7-7-7-7-7--
E--4-4--0-0---------------------2-2---------------------------------44-----------
B--------------------------------------------------------------------------------

-----------------------------------------------------------
----6-7----------------------------------------------------
---------6-6-----------------------------------------------
--------------7-7--5-5-5-5-5-5-5-5-5-5-5-5-----------------
-----------------------------------------------------------

Chorus
G---------------------------------------------------------------------------------------------
B---------------------------------------------------------------------------------------------
A-4-4-4-4-4-4~2-2-0-0-0-------------------------4-4-4-4-4-4~2-2-0-0-0-------------------------
E-----------------------------0-0-2-0-0-2-0-2-------------------------------0-2-0-2-0-2-------
B---------------------------------------------------------------------------------------------

-------------------------------------------------------------------------------------------------------
------------------------------------------2-2-1--------------------------------------------------------
--4-4-4-4-4-4-0-0-0-0-0>2-2-2-2---------2-----------4-4-4-4-4-4-0-0-0-2-2-2----------------------------
----------------------------------------------------------------------------------0-0-2-0-0-2-0-2------
-------------------------------------------------------------------------------------------------------

Riff to Verse
DJ riff
G-----------------------------------------------------------------------
D-----------------------------------------------------------------------
A-----------------------------------------------------------------------
E---4-4--0-0--4-4--0-0--------------------------------------------------
B-----------------------------------------------------------------------

Verse
G---------------------------------------------------------------------------------------------------
D---------------------------------------------------------------------------------------------------
A------------6-6-6-6~4-4-2-2--------~5-5-5-5-5-5-5-5-5-5~4-4-----------~7-7-7-7-7-7-7-7-7-----------
E--4-4--0-0---------------------2-2---------------------------------44------------------------------
B---------------------------------------------------------------------------------------------------

-----------------------------------------------------------
----6-7----------------------------------------------------
---------6-6-----------------------------------------------
--------------7-7--5-5-5-5-5-5-5-5-5-5-5-5-----------------
-----------------------------------------------------------

Chorus
G---------------------------------------------------------------------------------------------
B---------------------------------------------------------------------------------------------
A-4-4-4-4-4-4~2-2-0-0-0-------------------------4-4-4-4-4-4~2-2-0-0-0-------------------------
E-----------------------------0-0-2-0-0-2-0-2-------------------------------0-2-0-2-0-2-------
B---------------------------------------------------------------------------------------------

-------------------------------------------------------------------------------------------------------
-------------------------------------------2-2-1-------------------------------------------------------
--4-4-4-4-4-4-0-0-0-0-0>2-2-2-2---------2---------4-4-4-4-4-4-0-0-0-2-2-2------------------------------
----------------------------------------------------------------------------------0-0-2-0-0-2-0-2------
-------------------------------------------------------------------------------------------------------

Le note sono suonate sulla corda B, al tempo con la batteria
G-----------------------------------------------------------------------
D-----------------------------------------------------------------------
A-----------------------------------------------------------------------
E-----------------------------------------------------------------------
B----------------------------------2--2--2-2----------------------------

G-----------------------------------------------------------------------
D-----------------------------------------------------------------------
A-----------------------------------------------------------------------
E--9------5------9------5------12---------------------------------------
B-----------------------------------------------------------------------

G-----------------------------------------------------------------------
D-----------------------------------------------------------------------
A-----------------------------------------------------------------------
E--9-9-9-9-9-9------5-5-5-5-5-5------9-9-9-9-9-9-9------5---------------
B-----------------------------------------------------------------------

Outro Chorus
G--------------------------------------------------------------------------------------------------
B--------------------------------------------------------------------------------------------------
A-4-4-4-4-4-4~2-2-0-0-0---------------------------4-4-4-4-4-4~2-2-0-0-0----------------------------
E-----------------------------0-0-2-0-0-2-0-2-------------------------------0-2-0-2-0-2------------
B--------------------------------------------------------------------------------------------------

---------------------------------------------------------------------------------------------------
----------------------------------------2-2-1------------------------------------------------------
--4-4-4-4-4-4-0-0-0-0-0>2-2-2-2---------2------4-4-4-4-4-4-0-0-2-2---------------------------------
---------------------------------------------------------------------------0-0-2-0-0-2-0-2---------
---------------------------------------------------------------------------------------------------



G------------------------------------------------------------2-2-2--------------------------------
D--4-4-4-4-4-4-0-0-0-0-4-4-4-4-4-4-0-0----4-4-4-4--------2-0----------4-4-4-4-4-4-0---------------
A-----------------------------------------------0-------------------------------------------0-----
E-------------------------------------------------------------------------------------------------
B------------------------------------------------------------------------------------------------

Cerca nel sito

Segui Incubus Italia

Segui la Band

Seguici su Twitter

JSN Epic template designed by JoomlaShine.com