Redefine


Chitarra

TABBED BY: Ryan Hegenauer (Questo indirizzo email è protetto dagli spambots. È necessario abilitare JavaScript per vederlo.)
----------------------------------------------------------------


Accordatura: D A D G B E
Chitarra: 6 Corde Elettrica

C'E' UNA DISTORSIONE E UN phase COME EFFETTO

INTRO:
A-------------3--II -------------------A-0-0-0-1-3-3-3-3-II
D-040404040404-4-II THEN A LITTLE FILL:D-0-0-0-1-3-3-3-3-II


G--------------------II
D--------------5-----II
A-04-404-4-404-3-----II
D-04-404-4-404---404-II


e-5~~~-II
B-4~~~-II
G-5~~~-II


e-10-10-10-10-10-8-8-8-8------10------IIdurong second -e-5\4/5-II
B--------------------------10----10---IIverse he plays B-4\3/4-II
G------------------------7----------7-IIthis little ---G-5\4/5-II
D------------------------0------------IIfill>>>>>>>>>>


Basso


TABBED BY: Steve Rodd (Questo indirizzo email è protetto dagli spambots. È necessario abilitare JavaScript per vederlo.)
----------------------------------------------------------------


Intro: Didgeridu e batteria


Chorus: 1
G|-----------|-----------|--------------------------------------|
D|-----------|-----------|--------------------------------------|
A|-----------|-----------|--------------------------------------|
D|--0--0--0--|--0--0--0--|--0--0--0--0--0--0--0--0--3--3--3--3--|


G|----------------------------------------|----------------------------------------|
D|----------------------------------------|----------------------------------------|
A|-----------------------------3----------|----------------------------3-----------|
D|--0--4--4--0--4--4--4--0--4----4--0--4--|--0--4--4--0--4--4--4--0--4----4--0--4--|


G|----------------------------------------|------------------------------------------|
D|----------------------------------------|------------------------------------------|
A|-----------------------------3----------|------------------------------------------|
D|--0--4--4--0--4--4--4--0--4----4--0--4--|--0--4--4--0--4--4--0--0--0--0--3--3--3--3|


G|----------------------------------------|----------------------------------------|
D|----------------------------------------|----------------------------------------|
A|----------------------------3-----------|-----------------------------3----------|
D|--0--4--4--0--4--4--4--0--4----4--0--4--|--0--4--4--0--4--4--4--0--4----4--0--4--|


G|----------------------------------------|-----------------------|
D|----------------------------------------|-----------------------|
A|-----------------------------3----------|-----------------------|
D|--0--4--4--0--4--4--4--0--4----4--0--4--|--0--4--4--0--4--4--0--|


Verse: 1 * = nota morta(pizzicare la corda senza suonare la nota)
G|--------------------------------------5--5------------7--------|
D|--------------------------------------------*--5--6------5-----|
A|--5--5-SLIDE DOWN-3--3--*--5--------------------------------6--|
D|---------------------------------------------------------------|


This bar has a trill in it (basically doing loads of hammer on’s and pull
off’s between two notes) I’ve put a label above it just to make sure you
know exactly where it is.


(TRILL)
G|-------------------------5--5--------------7----------5--6--5--6--5--6--|
D|--------------------------------*--5--6-------5-------------------------|
A|--5--5--3--3--*--5------------------------------6-----------------------|
D|------------------------------------------------------------------------|


This goes on like this for 7 bars with a few variations, but it’s an easy bassline to play with once you’ve got the basics down. On the 8th bar going back into the chorus it does this

G|-------------------------5--5--------------7---------------------------------|
D|--------------------------------*--5--6-------5------------------------------|
A|--5--5--3--3--*--5------------------------------6----------------------------|
D|-----------------------------------------------------0--0--0--0--3--3--3--3--|


And then we return back into the main riff which is pretty much the same as the first time around. And then back into the verse which again is a lot like the first time around. Then again we go into the main riff which is the same but this time around the song goes into a drum and bass guitar groove. I know that what I play for this part is wrong but if you play it fast it sounds pretty close to the record. Because this part is slapped I have used + for thumb slaps and ^ for finger pops over the notes that they are relevant to. For hammer on’s I have used a H between the two notes that are relevant.

Theres a bar of crazy drumming and then the bass kicks in.


---------------------------------------------^----------------^------------------^
G|-------------------------------------------10---------------10-----------------10--|
D|-----------------------------------------------------------------------------------|
A|-----------------------------------------------------------------------------------|
D|--0-H-2--0--0-H-2--0--0-H-2--0-H-2--0--0-------0-H-2--0--0------0-H-2--0--0--------|
----+------+--+------+--+------+------+--+-------+------+--+------+------+--+


That’s the killer groove. It’s a real bastard to play when you start playing it fast so I sometimes find it easier to play the F an octave lower on the D string instead of playing the correct note which is right up on the fret board. This helps to cut down on finger board noise and makes the hole thing sound a lot smoother. After that we have a build up which takes into the main part of the song again.

G|-----------|--------|--------------|--------------|--------------|--------------|
D|-----------|--------|--------------|--------------|--------------|--------------|
A|-----------|--------|--------------|--------------|--------------|--------------|
D|--0--0--0--|--0--0--|--0--0--0--0--|--0--0--0--0--|--0--0--0--0--|--0--0--0--0--|


G|------------|--------------|--------|-----------------------------|
D|------------|--------------|--------|-----------------------------|
A|------------|--------------|--------|-----------------------------|
D|--0--0--0--0|--0--0--0--0--|--0--0--|--0--0--0--0--0--0--0--0--0--|


G|--------------------------|
D|--------------------------|
A|--------------------------|
D|--3--3--3--3--3--3--3--3--|


Then we go back into the main riff for 12 bars until the end. The final 12th bar goes like this.
G|---------------------------|
D|---------------------------|
A|---------------------------|
D|--0--2--2--0--2--2--0--0--0|

Redefine.
 

Vitamine


Chitarra

TABBED BY: PalmZ
----------------------------------------------------------------
Accordatura: Standard (E A D G B E)
Chitarra: 6 Corde Elettrica


Intro:(pulito)


D:--2-2--------------2-2-------------------
A:----------3-5--------------3-5-----------
E:------0-0-----0-0------0-0-----0-0-------


Pre Chorus:(distorsione)
E:----------------------------------------11-11-11-11-11-11---
B:----------------------------------------11-11-11-11-11-11---
G:----------------------------------------11-11-11-11-11-11---
D:--2-2---------------2-2-------------------------------------
A:----------3-5---------------3-5-----------------------------
E:------0-0-----0-0-0-----0-0-----0-0-0-----------------------


Verse:
D:--2-2--------------2-2-------------------
A:----------3-5--------------3-5-----------
E:------0-0-----0-0------0-0-----0-0-------


Chorus:(distorsione)
D:--2-2--------------------------------------
A:----------3-5--------5-5-------------------
E:------0-0-----0-0-0------0-0--3-5--0-0-0---


Basso

Accordatura: E A D G
Basso: 4 Corde 

*riff.1                    *riff.2
G|---------------------|   |------------------------------|
D|---------------------|x8 |------------------------------|x8
A|---------------------|   |--7-7--------3-5--------------|
E|--0--0--0--00--0--0--|   |-------0-0--------0-0--0-0----|
 

G|--------------------------------| |---------------------|
D|--------------------------------| |---------------------|x2
A|x1-1-1-1-1-1-1-1-1-1-1-1-1-1-1-1| |---------------------|
E|--------------------------------| |--0--0--0--00--0--0--|


*I'm born, I'm alive..     *riff.3
G|---------------------|   |-----------------------------------------|
D|---------------------|X8 |-----------------------------------------|x4
A|---------------------|   |--7-7-------3-5---------5-5-------0-2----|
E|--0--0--0--00--0--0--|   |-------0-0-------33-33-------1-1------0-0|


Verse 2 -riff.1
Chorus  -riff.3
 

  *Suonare la nota muta solo la prima volta.
G|-----------------|
D|-----------------|x4
A|x1-1-1-1-1-1-1-1-|
E|-----------------|


                                           *riff.4
G|----------------------|   |-----------------------------|
D|----------------------|x4 |-----------------------------|
A|-7--7-----------------|   |-7-777-7---------------------|
E|-----8--7---7-3-(3)/--|   |--------8-88-7-777-7--3-33/--|
 

G|-----------|
D|-----------|
A|-77----77--|
E|-00----00--|


Chorus -riff.3 x4
Chorus -riff.4 x4
 

New Skin


Chitarra

 

Accordatura: Standard (E A D G B E)
Chitarra: 6 Corde Elettrica


New skin ha un po' di feedback e distorsione nella canzone.

-Song progression is:

intro (4x)
post-intro (4x)
verse0 (3x)
verse1 (1x)
verse0 (4x)
pre-chorus (4x)
chorus (2x)
post-intro (1x)
verse0 (3x)
verse1 (1x)
verse0 (4x)
pre-chorus (8x)
chorus (4x)
intro (4x)
breakdown (1x)
post breakdown (1x)
pre-chorus (8x)
chorus (4x)
post-intro (3x)
ending (1x)


_________________________________________________
 


intro
-Per l'intro, bisogna bloccare leggermente tutte le corde 
 mentre le si suonano. E lasciarle suonare.
-Distorsione
|------|
|------|
|-44---|
|-44---|
|-22---|
|-22---|
  xx-bloccare

post-intro
-Fairly simple.....
-Distorsione
|----------------------------------------|
|----------------------------------------|
|---/4--4-4-4--------4--4-4-4---7--7-----|
|---/4--4-4-4---3----4--4-4-4---7--7-----|
|--0/2--2-2-2---3--0/2--2-2-2---5--5-----|
|---/2--2-2-2---1----2--2-2-2---5--5-----|

verse0
-Questo pezzo è molto veloce. Deve essere suonato 3 volte ,
 e poi andare al verse1. Poi tornare al verse0 4 volte.
-Distorsione
|-----------------------------------------|
|------------12-----------------14/13/14--|
|--11-11--11----11-11--11/12/11-----------|
|-----------------------------------------|
|-----------------------------------------|
|-----------------------------------------|
verse1
|--------------------------|
|-----------12-------------|
|-11-11--11----11-------5--|
|-----------------------5--|
|-----------------------3--|
|-----------------------3--|

pre chorus.
-Distorsione
|-----------------|
|-----------------|
|--4-44------5-55-|
|--4-44------5-55-|
|--2-22------3-33-|
|--2-22---2--3-33-|

chorus
|------------------------------------------|
|------------------------------------------|
|-------9-9-9--------------10-10--1010-----|
|-7-77--9-9-99---10-1010---10-10--1010-----|
|-7-77--7-7-77---10-1010---8--8---8-8------|
|-5-55--7-7-77---8--8-8----8--8---8-8------|

|-----------------------------------------|
|-----------------------------------------|
|-------9-9-9--------------12-12--1212----|
|-7-77--9-9-99---10-1010---12-12--1212----|
|-7-77--7-7-77---10-1010---10-10--1010----|
|-5-55--7-7-77---8--8-8----10-10--1010----|

breakdown
-Qui bisogna usare il volume della chitarra. 
 Mettere il volume a 0, fare la nota, quindi salire col volume fino a 10.
-Ancora distorsione.
|------------------10-------------------------------------|
|-9------------------------------------7---9--10----------|
|---------------------------------------------------------|
|----------7---------------7-------------------------7--9-|
|---------------------------------------------------------|
|---------------------------------------------------------|
post breakdown
-distorsione
|---------------------------------------------------|
|----------------------------------|--(palm mute)---|
|---4--------4--------4--------4-4-|-----55-5-5-5---|
|---4--------4--------4--------4-4-|-----55-5-5-5---|
|---2--------2--------2--------2-2-|-----33-3-3-3---|
|---2--------2--------2--------2-2-|-00--33-3-3-3---|
ending
|---------------------|
|---------------------|
|---4-4--4-4-4--4-5---|
|---4-4--4-4-4--4-5---|
|---2-2--2-2-2--2-3---|
|---2-2--2-2-2--2-3---|

Song Struture:
intro (4x)
post-intro (4x)
verse0 (3x)
verse1 (1x)
verse0 (4x)
pre-chorus (4x)
chorus (2x)
post-intro (1x)
verse0 (3x)
verse1 (1x)
verse0 (4x)
pre-chorus (8x)
chorus (4x)
intro (4x)
breakdown (1x)
post breakdown (1x)
pre-chorus (8x)
chorus (4x)
post-intro (3x)
ending (1x)

Basso

Accordatura: E A D G
Basso: 4 Corde   

G|---------------------------|
D|---------------------------|
A|-22----22---22-------22----|
E|-22----22---22-------22----|

                                          *Pop this note.
G|----------------------------------------7--|
D|-------------------------------------------|
A|--0h2-2222-2-2-----0h2-2222-2-2--5--555----|
E|--------------1-11-------------------------|

*"at first I see" *Slap & pop this whole part.
G|----------4-----5----------------|  |------------|
D|---------------------------------|x3|------------|
A|--0h2-x2----xx----x3-3h5-3h5-3h5-|  |------------|
E|---------------------------------|  |--/8-88-88\-|

G|---------------------|
D|---------------------|
A|-22-222------3-3-33--|
E|--------1-1----------|

*chorus
G|-------------------------------------|
D|-------------------------------------|
A|--------- -7--777-77--3-33/8-888-88--|
E|--/5-5555--0-------------------------|

G|---------------------------|
D|---------------------------|
A|-/3-2-0-2h3-2-0--2-0---0-2-|
E|---------------------3-----|
 

Idiot Box

Chitarra

TABBED BY: Kenny Luong (Questo indirizzo email è protetto dagli spambots. È necessario abilitare JavaScript per vederlo.)
----------------------------------------------------------------


Accordatura: D A D G B E
Chitarra: 6 Corde Elettrica


Intro/Chorus ////////////
E|------------------------------------|
B|------------------------------------|
G|------------------------------------|
D|--14/--5---5h6p5--3--5--5-5h6p5--3--|
A|--14/--5---5h6p5--3--5--5-5h6p5--3--|
D|--14/--5---5h6p5--3--5--5-5h6p5--3--|


E|------------------------------|
B|------------------------------|
G|------------------------------|
D|--7---7h8p7--5--8---8-8--x-x--|
A|--7---7h8p7--5--8---8-8--x-x--|
D|--7---7h8p7--5--8---8-8--x-x--|


E|-------------------------------|
B|-------------------------------|
G|-------------------------------|
D|--5---5h6p5--3--5--5-5h6p5--3--|
A|--5---5h6p5--3--5--5-5h6p5--3--|
D|--5---5h6p5--3--5--5-5h6p5--3--|


E|-----------------------------------|
B|-----------------------------------|
G|----------------------------\-\-\--| <- pick scrap
D|--7--7-7h8p7--5--8---8-8---/-/-/---|
A|--7--7-7h8p7--5--8---8-8-----------|
D|--7--7-7h8p7--5--8---8-8-----------|


Verse /////


E|--2-----1-----0----------2----------|
B|--3-----3-----1------1-------1------| **="appregate" the chords
G|--2-----2-----2----2---2---------2--|
D|------------------------------------|
A|------------------------------------|
D|------------------------------------|
----** --**---- **


Bridge //////
E|--2-------------------|
B|--3-----0-1-0---------|
G|---------------2-3-2--|
D|----------------------|
A|----------------------|
D|----------------------|


E|-----------------------------|
B|-----------------------------|
G|-----4--4-4-4-4-4-4-4-4-4-4--|
D|--/--4--4-4-4-4-4-4-4-4-4-4--|
A|--/--2--2-0-2-0-2-2-0-2-2-2--|
D|-----------------------------|


E|--2-----1-----0-------------------|
B|--3-----3-----1-------------------| **="appregate" the chords
G|--2-----2-----2----4-4-4-4-4-4-4--|
D|-------------------4-4-4-4-4-4-4--|
A|-------------------2-2-2-2-2-2-2--|
D|----------------------------------|
---**--- **---**


Outro /////


E|----------------------------------|
B|----------------------------------|
G|----------------------------------|
D|-8888888-5-xx-6--3--5-xx-5--6--3--|
A|-8888888-5-xx-6--3--5-xx-5--6--3--|
D|-8888888-5-xx-6--3--5-xx-5--6--3--|
---< p.m>


E|----------------------------------|
B|----------------------------------|
G|----------------------------------|
D|--7-xx-7--8--5--8---8-8--8888888--|
A|--7-xx-7--8--5--8---8-8--8888888--|
D|--7-xx-7--8--5--8---8-8--8888888--|
----------------------------<p.m>


E|---------------------------|
B|---------------------------|
G|---------------------------|
D|--5-xx-6--3--5-xx-5--6--3--|
A|--5-xx-6--3--5-xx-5--6--3--|
D|--5-xx-6--3--5-xx-5--6--3--|


E|-------------------------------------|
B|---------------------------------*5--| *=harmonics
G|---------------------------------*5--|
D|--7-xx-7--8--5--8---8--5-5555-5--*5--|
A|--7-xx-7--8--5--8---8--5-5555-5------|
D|--7-xx-7--8--5--8---8--5-5555-5------|
---------------------------<p.m>


Basso

TABBED BY: Steve Burns (Questo indirizzo email è protetto dagli spambots. È necessario abilitare JavaScript per vederlo.)
----------------------------------------------------------------


Intro/Chorus seguire la chitarra


Durante il verso il basso suona questo:
g-------------7----------------5-----
D----------------6---7----7--------6-
A---5---5----------------------------
E------------------------------------
 

Glass


TABBED BY: Justin Shirah
----------------------------------------------------------------


Accordatura: D A D G B E
Chitarra: 6 Corde Elettrica


D|------------------------------------------------9--|
A|---------------------------------------------------|
D|-10^-9--9-10-9-10^-9--9-10^-9--9-10-9-10^-9--9-----|


fill
D|-7-7-7-10-6-6-|


korisss
D|-9------9-----9-----7-10--|
A|-9------9-----9-----7-10--|
D|-9--000-9-000-9-000-7-10--|


other thing
D|-999999999999999999-|
A|-999999999999999999-|
D|-999999999999999999-|


Basso

TABBED BY: Ryan Hegenauer (Questo indirizzo email è protetto dagli spambots. È necessario abilitare JavaScript per vederlo.)
----------------------------------------------------------------
Accordatura: B E A D G
Basso: 5 Corde


D--------0-1-2-II THEN A LITLE D-----2---II
A-2--0-4-------II FILL THINGY: A-0-0---0-II


A-00000000-333332-II
you're never gonna be...


A----------------0-0--3-3-II
E-------------------------II
B-0-0--0-0---0-0----------II THEN: A-5/7777/101010/1212-1414-II


ANOTHER FILL:
D-----22-------33---II
A-000----0-111----1-II


CI SONO ALTRE PARTI MINORI CHE NON HO TABLATO
SONO FACILI E QUINDI TROVABILI AD ORECCHIO DA SOLI
 

Magic Medicine

Solo Basso

TABBED BY: AJ Serino (Questo indirizzo email è protetto dagli spambots. È necessario abilitare JavaScript per vederlo.)
----------------------------------------------------------------


Accordatura: E A D G
Basso: 4 Corde


G|-------------------------------- || <- 3 volte e poi la
D|-------4--------------4-5----7--.|| seconda parte
A|3-------------------4-----5-----.|| (sotto)
E|-------------------------------- ||


G|--------------------------------------|
D|-------4----((rest))--4\3/5\4/6\5\4\3\| <(penso questa parte
A|3-------------------3/----------------| sia giusta.)
E|--------------------------------------|


*slur all the notes*>
 

A Certain Shade Of Green


Chitarra

TABBED BY: Albert Huang
----------------------------------------------------------------


Accordatura: D A D G B E
Chitarra: 6 Corde Elettrica


Riff 1
D|x-x-7777-7777-888-7777-77-101010-8-7-4444-4444-44--3-3-3-3--|
A|x-x-5555-5555-666-5555-55-8--8-8-6-5-2222-2222-22--1-1-1-1--|
D|------------------------------------------------------------|


Chorus(all through vocalzwhen riff one isn't played)


D|-2-3--5-2--|
A|-2-3--3-0--|
D|-2-3-------|
---^ ^----------------bloccato


piccolo assolo (pulito)


e|13-13--14-13-13/14-13131313-13-1313--13-1313-------------|
b|---------------------------------------------10--10------|
G|---------------------------------------------------------|
D|----------------------------------------------------14---|


e|--13-----13-14------13------------------|
b|-------------------------------11-12----|
G|----------------------------------------|
D|------14---------14-----14-----------14-|


e|--13----13-14------13------------------|
b|-------------------------------11-12---|
G|---------------------------------------|
D|------14---------14-----14-------------|


D|-3-3-|
A|-1-1-| (over and over....)


alternate riff 1 (pulito) -------------v---La distorsione parte proprio qui!


D|-7777-7777-888-7777-77--10-8-7-4444-4444-44--3-3-3-3--|
A|-5555-5555-666-5555-55--8--6-5-2222-2222-22--1-1-1-1--|
D|------------------------------------------------------|


D|-7777-7777-888-7777-77-101010-8-7-4444-4444-44--3-3-3-3-3-3-3-3-3------|
A|-5555-5555-666-5555-55--8-8-8-6-5-2222-2222-22--1-1-1-1-1-1-1-1-1(fade)|
D|-----------------------------------------------------------------------|


Basso

TABBED BY: Jake Moore (Questo indirizzo email è protetto dagli spambots. È necessario abilitare JavaScript per vederlo.)
----------------------------------------------------------------


Accordatura: G D A E
Basso: 4 Corde


Intro chitarra w/ distorsione.
Poi entra il basso:

Intro:
G|-----------------------------|
D|-----------------------------|
A|-5-5-5-5---5-5-5-5---6-6-6-6-|
E|-----------------------------| cont.


G|-------------------------------------------------|
D|-------------------------------------------------|
A|-5-5-5-5---5-5-8-6-5-2-2-2-2---2-2-2-2---2-2-1-1-|
E|-------------------------------------------------|


Verse:
G|---------|
D|---------|
A|-----4---|
E|-0-3---0-|


fai questo e poi aspetta un po' prima di rifarlo!
Ascolta il cd per il tempo


Chorus:
G|-----------------------------|
D|-----------------------------|
A|-5-5-5-5---5-5-5-5---6-6-6-6-|
E|-----------------------------| cont.


G|-------------------------------------------------|
D|-------------------------------------------------|
A|-5-5-5-5---5-5-8-6-5-2-2-2-2---2-2-2-2---2-2-1-1-|
E|-------------------------------------------------|


Bridge:
G|------------------------------|
D|------------------------------| Penso sia giusto. Non suona uguale
A|-8-6---5-5-4-4-3-3-2h3-2-2/10-| ma penso sia ok comunque.
E|-----3------------------------|
Dirk è troppo bravo per imitarlo.


the end fades out and all it is is tapping 0 on the E string in whatever
type of rhythm sounds good.


Spero di aver aiutato qualcuno.
_-¯-JAKE-¯-_

Favourite Things

Chitarra

TABBED BY: Ryan Hegenauer (Questo indirizzo email è protetto dagli spambots. È necessario abilitare JavaScript per vederlo.)
----------------------------------------------------------------


Accordatura: E A D G B E
Chitarra: 6 Corde Elettrica


La maggior parte in distorsione


e-5-0-5-6-6-0-5-5-II
B-5-0-5-6-6-0-5-5-II


D------77----------88--II
A--------77------77----II
E-5555------6666-------II


CHORUS
D-----10-10--------------II
A-7-7-8--8--7-7-8-8-3-3--II
E-5-5-8--8--5-5-6-6-1-1--II


Basso

Tabbed by Spooney (Questo indirizzo email è protetto dagli spambots. È necessario abilitare JavaScript per vederlo.)
- - - - - - - - - - - - - - - - - - - - - - - - - - - - - - - - - - - - - - - - - - - - - - - - - - - - - - - - - - - - - - - - - - - - - - - - - - - - - - - - - -


Accordatura: E A D G
Basso: 4 Corde


E' difficile sentire il basso nel verso, questo è motivo per cui ho aggiunto una parte che segue la chitarra. Se ascoltate When Incubus Attacks si sente meglio che in Science


Main riff (also played through the verse)
G|-----------------------------------------------------------|
D|-----------------------------------------------------------|
A|-0---0-1---1------------------0---0-1---1------------------|
E|---0-----1---5555-5-0-1-2-3-4---0-----1---6666-6-0-1-2-3-4-|


Main riff variations
G|-----------------------------------------------------------|
D|-----------------------------------------------------------|
A|-0---0-1---1------------------0---0-1---1------------------|
E|---0-----1---5555-5-0-xxxxxxx---0-----1---6666-6-0-xxxxxxx-|


G|-------------------------------------------------------|
D|-------------------------------------------------------|
A|-0---0-1---1----------------0---0-1---1----------------|
E|---0-----1---5555-5-3-333-3---0-----1---6666-6-3-333-3-|


Fast break
G|-----------------------|
D|-----------------------|
A|---------77------88----|
E|-5555-66----6666----77-|


Chorus
G|------------------------|------------------------|
D|------------------------|------------------------|
A|------/8-88-----------8-|------/8-88-------------|
E|-5-55-------5-5-6-66/---|-5-55-------5-5-6-6-66--|


Slow down riff (after the first chorus)
G|------------------------------------------|
D|------------------------------------------|
A|-5---55---4---44---3---33---1---11-(hold)-|
E|---5----5---4----4---3----3---1-----------|


Taken from The Bass Tab Archive ~ http://www.basstabarchive.com
 

Summer Romance (Anti-Gravity Love song)


Chitarra

TABBED BY: Albert Huang
----------------------------------------------------------------


Accordatura: Standard (E A D G B E)
Chitarra: 6 Corde Elettrica


main riff
A|-2h4-2-0h2-------2h4-2-0h2-------|
E|-----------2-2h5-----------3-3h5-|
con un wah wah al massimo
per quel suono muffled fuzzy


variation 1
A|-2h4--0h2------------|
E|-----------3h5--2h3--|


variation 2
A|-2h4-2-0h2-222222-|
E|------------------|


piccolo assolo veloce
e|-7-10-7-----------------------|
b|------------------------------|
G|--------9-7-----7p6-----/9-77-|
D|------------7-6-----6h7-------|
questo è il mio meglio. per eventuali cambiamenti mandate un e-mail!


verse
e|---------------------7777--7~-|
b|---------------------7777--7~-|
G|-7-9-9/11-9-7-9-7----------7~-|
D|------------------9-----------|


variation to the verse
e|-----------------------77-10-77-10----------|
b|-----------------------------------9-7------|
G|-7-9-9/11-9-7-9-7----------------------9-7--|
D|------------------9-------------------------|
Dovrebbe essre così.


chorus
b|-9-xx-9--8-xx-8--7-xx-7--6---|
G|-9-xx-9--9-xx-9--9-xx-9--9---|
D|-8-xx-8--8-xx-8--8-xx-8--8---|
non molto sicuro di questo


Basso

TABBED BY: Pat Quinn (Questo indirizzo email è protetto dagli spambots. È necessario abilitare JavaScript per vederlo.)
----------------------------------------------------------------


Accordatura: B E A D G
Basso: 5 Corde


Intro:
G|---------4-7-4---7--7--7-9-9-6|
D|------------------------------|
A|-----2------------------------|
E|---2--------------------------|
B|-0----------------------------|


Verse:
G|----------------||--------|
D|----4/---------O||--------|
A|-2------0--0-1--||--------|
E|---------------O||--------|
B|----------------||-0--->--| (penso la B aperta sia suonata 4 volte o circa)


Chorus:
G|----------------------------------------------------------------------||
D|--------------------------------------------------------------4------O||
A|-------------9-7--------------7-5-------------------------------2-----||
E|-7--7--7---7------5--5--5---5------4--4--4---4-5-4---2--2--2------2--O||
B|----------------------------------------------------------------------||


G|--------------------|
D|--------------------|
A|-----------------5-4|
E|-3-3-3-3--3-2-3-----|
B|--------------------|

 

Nebula

Chitarra

TABBED BY: Justin Shirah
----------------------------------------------------------------


Accordatura: D A D G B E
Chitarra: 6 Corde Elettrica


verse
b|-11----------|


questo non è esattamente giusto, penso ci sia qualcos'altro da fare!


core-ass
D|-----8-------8--------|
A|-7-7-6-7-7-7-6-7-7-7--|
D|-7-7---7-7-7---7-7-7--|


other thing
G|---4-2-1-2-1-0-1-|
D|-2---------------|
molto veloce via via col chorus


fill
A|-5--------7--------|
D|-5--5-5-5-7--7-7-7-|
tutte le singole note sono bloccate


Basso

Tabbed by Spooney (Questo indirizzo email è protetto dagli spambots. È necessario abilitare JavaScript per vederlo.)

Accordatura: B E A D G
Basso: 5 Corde


As for the song itself, it was extremely difficult to label the parts properly, so I hope it's understandable.


Verse (drum and bass part)


G|---------------------|
D|*-------------------*|
A|---------------------|
E|*-11--11-11--11-7-7-*|x8
B|---------------------|


Heavy part
G|-------||-------------------| -|------------|
D|-------||*-----------------*| -|------------|
A|-----6-||-------6--------6--|x3|------6---6-|
E|-5-5---||*-5-55---5-5555---*| -|-5-55---5---|
B|-------||-------------------| -|------------|


Interlude 1 (very fast tempo)
G|-----------------| -|--------------------|
D|---4-2-0-2-0-----| -|--------------------|
A|-2-----------4-5-|x3|--------------------|
E|-----------------| -|-3--3-3-3--5--5-5-5-|
B|-----------------| -|--------------------|


this leads to...


Break
G|--------------|--------------|--------------|---------------|
D|--------------|--------------|--------------|---------------|
A|--------------|--------------|--------------|------------2\-|
E|--------------|--------------|--------------|---------------|
B|-3-333-333----|-3-333-333----|-33-33-333----|-3-333-333-----|


Play verse, heavy part and interlude 1 again, leading to...


Break variation
G|--------------|--------------|--------------|------------------|
D|--------------|--------------|--------------|------------------|
A|--------------|--------------|--------------|------------2/7~\-|
E|--------------|--------------|--------------|------------------|
B|-3-333-333----|-3-333-333----|-33-33-333----|-3-333-333--------|


This flows directly into interlude 2:
G|-----------------| -|---------------|
D|---4-2-0-2-0-----| -|---------------|
A|-2-----------4-5-|x3|---------------|
E|-----------------| -|---------------|
B|-----------------| -|-0------1------|


Play interlude 2 through 3 times, then play:
G|--------------------------|
D|--------------------------|
A|--------------------------|
E|-------------3------------|
B|-0-----3-----------1------|


Now play:
G|----------------|----------------|---------------|--------------|
D|----------------|----------------|---------------|--------------|
A|-----5------5---|-----5------5---|-----5---------|-----5------5-|
E|----------------|----------------|---------------|--------------|
B|-3-3---3-33-----|-3-3---3-33-----|-3-3---3-333---|-3-3---3-33---|


Followed by the final heavy part
G|-------||-------------------| -|------------|
D|-------||*-----------------*| -|------------|
A|-----6-||-------6--------6--|x3|------6---6-|
E|-5-5---||*-5-55---5-5555---*| -|-5-55---5---|
B|-------||-------------------| -|------------|


Play through interlude 1 3 times, and finish straight after with:
G|----------------|
D|----------------|
A|----------------|
E|-7--------------|
B|-0-(hold)-------|


Taken from The Bass Tab Archive ~ http://www.basstabarchive.com
 

Deep Inside

Chitarra


TABBED BY: Andrew Calder & James "CaCo" Mazey
----------------------------------------------------------------


Accordatura: E A D G B E (scusate!)
Chitarra: 6 Corde Elettrica


INTRO
e------10-10-10----|
b-9-9--9--9--9-----|
g-7-7--------------|
d------------------|
a------------------|
E------------------|


FUNKY BIT
e--7-7-7-----------|-7-7-7-------------|-7-7-7-------------|-7-7-7-------7---7--7--7----|
b--7-7-7-----------|-7-7-7-------------|-7-7-7-------------|-7-7-7------10-10-10-10---|
g--7-7-7-9-7-9-9-|-7-7-7--7-X-7-7-|-7-7-7-9-7-9-7-7-|-7-7-7-X-9-7----------------|
d-------------------|------9--------------|-----------------|--------------------------|
a-------------------|----------------------|-----------------|--------------------------|
E------------------|----------------------|-----------------|--------------------------|


e--7-7-7----------------|-7-7-7--------------|-7-7-7-------------------|------10------------|
b--7-7-7----------------|-7-7-7--------------|-7-7-7-------------------|-------/12-10-10--|
g--7-7-7-9-7-9-9-7-7-|-7-7-7---7-X-7-7-|-7-7-7-9-7-X-9-9-7-7-|-7--7-/9---7---7---|
d-------------------------|-----9--------------|---------------------|-----------------|
a-------------------------|---------------------|---------------------|-----------------|
E-------------------------|--------------------|---------------------|-----------------|


VERSE
e-------------------|-16-16-16-16-16-16---|
b-------------------|-15-15-15-15-15-15---|
g*-7-------------.-*|-16-16-16-16-16-16---|
d*--9-9-9-9-9-9*|---------------------|
a---------------|---------------------|
E---------------|---------------------|


CHORUS
"over and over we ask ourselves....."


e----------------------------------------------|
b----------------------------------------------|
g-9-9-9-9-9-6-6-6-6-6--------------------------|
d-9-9-9-9-9-6-6-6-6-6-7-7-7-7-7-8-8-8-8-8------|
a-7-7-7-7-7-4-4-4-4-4-7-7-7-7-7-8-8-8-8-8------|
E---------------------5-5-5-5-5-6-6-6-6-6------|


ACCORDI JAZZ
"well i've got to find my way back home......"
e-----------------------------|--------------------------|
b-7-7-7-7-5-5-5-5-3-3-3-3-4---|-9-9-9-9-7-7-7-7-5-5-5-5--|
g-7-7-6-6-5-5-4-4-3-3-2-2-3---|-9-9-8-8-7-7-6-6-5-5-4-4--|
d-5-5-5-5-3-3-3-3-1-1-1-1-4---|-7-7-7-7-5-5-5-5-3-3-3-3--|
a-----------------------------|--------------------------|
E-----------------------------|--------------------------|


PRIMO ASSOLO DI CHITARRA (2:00?)
e--9-9-/-10-9--|-9---------------------------|-9--9/--10-9-9------------------------|
b--------------|-----------------------------|--------------------------------------|
g*-6-6-/-7--6-*|-6-----9-9-----9-9-----9-9---|-6--6/---7-6-6-----9-9-----9-9--------|
d*------------*|---7-7-----7-7-----7-7-----7-|---------------7-7-----7-7-----7-7----|
a--------------|-----------------------------|--------------------------------------|
E--------------|-----------------------------|--------------------------------------|


continued -------------^ -------------------^
e-------------|-7-7-9-9-10-----------5-5-7-7-8--10-------------------7-8-9-10-11----|
b--^----------|--------^-------10-10--------^------8------7-8-9-10-11---------------|
g-9-11-11-9-7-|-4-4-6-6-7--7-7-------2-2-4-4-5-------7-8-9--------------------------|
d-------------|---------------------------------------------------------------------|
a-------------|---------------------------------------------------------------------|
E-------------|---------------------------------------------------------------------|


continued
e-12-12---12-12---12---12---12-12-13-13-15-17-19-20\----|
b------10------10---10---10-----------------------------|
g--------9-------9----9----9---------------------17\----|
d-------------------------------------------------------|
a-------------------------------------------------------|
E-------------------------------------------------------|


HEAVY BIT
e--------------------------------------|
b--------------------------------------|
g*-------------------------------------|
d*--4-4-4-4-4-4-4-10--4-4-4-4-4-4-4-8--|
a---2-2-2-2-2-2-2-8---2-2-2-2-2-2-2-6--|
E---2-2-2-2-2-2-2-8---2-2-2-2-2-2-2-6--|


SECONDO ASSOLO DI CHITARRA (3:10?)
e-------------------------------------------------|
b----^-----^-^-------------^----------------------|
g-9-9-7---7-9-7-------7---7-9-/-11-9-7------------|
d-------9-------9-7-9---9-------------9-7-9-7-9-9-|
a-------------------------------------------------|
E-------------------------------------------------|


continued
e-9----------9-10-9----------9-10-10-9-9-12-12-9----------9-10/12-10/12-9-10-9-|
b--10------10------10---------------------------10------10---------------------|
g----11--11----------11--11-----------------------11--11-----------------------|
d------12--------------12--12-----------------------12-------------------------|
a------------------------------------------------------------------------------|
E------------------------------------------------------------------------------|


continued ------------------------^ -----------------------^
bbbbbbbbbb
e-------------------------------12-9---12-12-9---12-9----12-9-12-12-12-12-12---|
b-12-12-12-10-12-9-10---------10----10---------10-----10-----------------------|
g---------------------7-9-7/11-------------------------------------------------|
d------------------------------------------------------------------------------|
a------------------------------------------------------------------------------|
E------------------------------------------------------------------------------|


continued -------------------------b ----------b
e-10-10-12-12-9-9-10-10-------9-----------------------------|
b-----------------------12-12-----9-----9-7-7-7-------------|
g-------------------------------11---------9---9-7-9---7-7--|
d-----------------------------------------------------------|
a-----------------------------------------------------------|
E-----------------------------------------------------------|


continued(3:44)
e-12-10--10-10-14-10-10-10-10-12-12-10---12-10--10-10-10-10-10-12-10-|
b------12-----------------------------12------12---------------------|
g--------------------------------------------------------------------|
d--------------------------------------------------------------------|
a--------------------------------------------------------------------|
E--------------------------------------------------------------------|


still continued
e-10--------------------------------------|
b---12-10-9-10-9-10-9--9------------------|
g--------------------11-7-7-9--7--9-7-9-7-|
d-----------------------------------------|
a-----------------------------------------|
E-----------------------------------------|


FINALE
e-------------------11---|
b-------------------10---|
g-9-7---------------11---|
d-----9----7--9-9-7------|
a------7-9---9-----------|
E------------------------|



Basso

TABBED BY: Pat Quinn (Questo indirizzo email è protetto dagli spambots. È necessario abilitare JavaScript per vederlo.)
----------------------------------------------------------------


Accordatura: E A D G
Basso: 4 Corde


Verse:
G|----------------------------------||------------|
D|---------------------------------O||------------|
A|-7--X-7-5--7-5-------------------O||-5----------|
E|----------------7--X-7-5--7--5-7--||---7-7-7-7-7|


"Over and over we ask ourselves...":
G|-----------|------------------------|
D|-----------|------------------------|
A|-7--5------|-----9------7------5---3|
E|-------5--6|-7H9----5H7----3H5------|


Assolo di chitarra:
G|-9-7---------------------------------------------|
D|-----9-7-----7H9-9--7----------------------------|
A|---------7-9---------------5-5-----6-6-----7-----|
E|------------------------3-------4-------5-----6-6|
 

Calgone


Chitarra

TABBED BY: Justin Shirah
----------------------------------------------------------------
Accordatura: D A D G B E
Chitarra: 6 Corde Elettrica


intro thing
E' basso quindi non assieme.
Quando il basso distorto arriva usare uno slide per il suono ascendente


main thing
D|---------5-----|
A|-4-2-2-4-3-4-2-|
D|-4-2-2-4---4-2-|


verse thing
e|-------------0--|
b|-------------0--|
G|-------------0--|
D|-xx-8h9-x9x9----|


other other thing
b|-0-----0------0-----0----0--|
G|-3-----3------3-----3----3--|
with chorus. right before next thing


next thing
D|-4-----------4--------4----------4-------7--|
A|-2--4-7-4-7--2-4-7-4--2-4-7-4-7--2-4-7-4-5--|
D|----4-7-4-7----4-7-4----4-7-4-7----4-7-4----|


Basso

Tabbed by Spooney (Questo indirizzo email è protetto dagli spambots. È necessario abilitare JavaScript per vederlo.)

Accordatura: E A D G
Basso: 4 Corde


Intro
G|-6-----6-----6-----6-------7-----7-----7-----7------|
D|---7-----7-----7-----7-------8-----8-----8-----8----|
A|-----7-----7-----7-----7-------8-----8-----8-----8--|
E|----------------------------------------------------|


First main riff
G|-----|------------------------------|
D|-----|------------------------------|
A|-----|-------3--------------3-------|
E|-12\-|-0-0-2---2-0-2--0-0-2---2-0-2-|


First riff variations
G|-----------------|----------------|
D|-----------------|----------------|
A|---------3-------|-------3--------|
E|-0-000-2---2-0-2-|-0-0-2---2-0-2/-|


Second main riff
G|-----------------|
D|-----------------|
A|-----------------|
E|-3-0-2h3h4-3p2-3-|


Break
G|---------------------------------------------|
D|---------------------------------------------|
A|---------------------------------------------|
E|-6-----6-----6-----6-----6-----6-----6-----6-|


Chorus
G|-----------------------|-----------------------|
D|-----------------------|-----------------------|
A|-2---------0--2--------|-2---------0h22--------|
E|----2-333--------2-3-2-|----2-3-3--------2-3-2-|


Chorus variation (play 4th time)
G|-------------------------|
D|-------------------------|
A|-2---------0--2----------|
E|----2-333--------2-3-2-5-|


After chorus, play:
G|-------------------------------|-----------------|
D|-------------------------------|-----------------|
A|-------------------------------|-----------------|
E|-----3-----3-----3-----3---12\-|-3-0-2h3h4-3p2-3-|


Play through riffs in order to finish the song, and you're done! Again, I haven’t yet done the secret stuff (Segue 1), but please mail me with any contributions you may have.
 

Cerca nel sito

Segui Incubus Italia

Segui la Band

Seguici su Twitter

JSN Epic template designed by JoomlaShine.com