Nice to Know You


Chitarra

TABBED BY: Juan M. Sanchez (Questo indirizzo email è protetto dagli spambots. È necessario abilitare JavaScript per vederlo.)
----------------------------------------------------------------


Accordatura: D A D G B E
Chitarra: 6 Corde Elettrica

(intro & chorus) x4
E---------------------------------------------------------
B---------------------------------------------------------
G---------------------------------------------------------
D--2/4-4-0-0--0-2-2/4-4--2/4-4-0-0--0-2-2/4-4-4-4-4-7-7---
A--2/4-4-0-0--0-2-2/4-4--2/4-4-0-0--0-2-2/4-4-4-4-4-7-7---
D--2/4-4-0-0--0-2-2/4-4--2/4-4-0-0--0-2-2/4-4-4-4-4-7-7---


I haven't felt the way ...

E--0--0-0-0-0-0--0-0-0--0-0-0--0-0-0-0-0-0-----0--0-0-0-0-0--0-0-0--0-0-0-0-0-0-0------------
B--5--5-5-5-5-5--5-5-0--0-0-0--0-0-0-0-0-0-----5--5-5-5-5-5--5-5-0--0-0-0-0-0-0-0------------
G--4--4-4-4-4-4--4-4-1--1-1-1--1-1-1-1-1-1-----4--4-4-4-4-4--4-4-3--3-3-3-3-3-3-3------------
D--7--7-7-7-7-7--7-7-2--2-2-2--2-2-2-2-2-2-----0--0-0-0-0-0--0-0-4--4-4-4-4-4-4-4------------
A--0--0-0-0-0-0--0-0-0--0-0-0--0-0-0-0-0-0-0-0-5--5-5-5-5-5--5-5-4--4-4-4-4-4-4-4-5-5-2-2-2--
D----------------------------------------------0--0-0-0-0-0--0-0-4--4-4-4-4-4-4-4-----2-2-2--


Could it be that it had been ...
E--------------------------------------------------------
B----------0-0-0-0-0--0-0-0--0-0--0-0-0-0--0-0-0---------
G----------0-0-0-0-0--0-0-0--0-0--0-0-0-0--0-0-0---------
D----------4-4-4-4-2--2-2-2--2-2--2-2-2-2--2-2-2---------
A--0-3-5-0-5-------3--3-3-3--3-3--3-3-3-3--3-3-3---------
D--------------------------------------------------------



E--------------------------------------------------------
B----------0-0-0-0-0--0-0-0-0-0-0-0-----------0-0--0-0-0-
G----------0-0-0-0-0--0-0-0-0-0-0-0-0/0-0-0-0-2-2--2-2-2-
D----------4-4-4-4-2--2-2-2-2-2-2-2-2/4-4-4-4-2-2--2-2-2-
A--0-3-5-0-5-------3--3-3-3-3-3-3-3-3/5-5-5-5-0-0--0-0-0-
D--------------------------------------------------------


E--------------------------------------------------------
B----------------0---0-0--0-0-0-0--3-3--3--0-0--0-0------
G--------------0---0-0-0--0-0-0-0--0-0--0--0-0--0-0------
D------------4-------2-2--2-2-2-2--2-2--2--2-2--2-2------
A--0-3-5-0-5---------3-3--3-3-3-3--3-3--3--3-3--3-3------
D--------------------------------------------------------


E--------------------------------------------------------
B----------------0----0-0-0-0---0-0-----------0-0--0-0-0-
G--------------0---0--0-0-0-0---0-0-0/0-0-0-0-2-2--2-2-2-
D------------4--------2-2-2-2---2-2-2/4-4-4-4-2-2--2-2-2-
A--0-3-5-0-5----------3-3-3-3---3-3-3/5-5-5-5-0-0--0-0-0-
D--------------------------------------------------------

(ending chorus)

x3
E--------------------------------------------------------
B--------------------------------------------------------
G--------------------------------------------------------
D--2/4-4-0-0--0-2-2/4-4--2/4-4-0-0--0-2-2/4-4-4-4-4-7-7--
A--2/4-4-0-0--0-2-2/4-4--2/4-4-0-0--0-2-2/4-4-4-4-4-7-7--
D--2/4-4-0-0--0-2-2/4-4--2/4-4-0-0--0-2-2/4-4-4-4-4-7-7--


E-----------------------------------------------------------
B-----------------------------------------------------------
G-----------------------------------------------------------
D--2/4-4-0-0--0-2-2/4-4--2/4-4-0-0--0-2-2/4-4-4-9-9-9-7-7-7-
A--2/4-4-0-0--0-2-2/4-4--2/4-4-0-0--0-2-2/4-4-4-9-9-9-7-7-7-
D--2/4-4-0-0--0-2-2/4-4--2/4-4-0-0--0-2-2/4-4-4-9-9-9-7-7-7-


 

Basso

TABBED BY: Jon Dixit (Questo indirizzo email è protetto dagli spambots. È necessario abilitare JavaScript per vederlo.)
----------------------------------------------------------------


Accordatura: Standard (E A D G )
Basso: 4 Corde

intro and verse
G||----------------------------------------------|
D||----------------------------------------------|
A||----------------------------------------------|
E||-12-14-15-12-10-10-12-14-14-12-14-15-12-10-10/|

little part between verse and chorus
G||---------------------------------------------------------------------------------|
D||----------------------------------------7/5-5-5-5-5-5-5-5-4-4-4-4-4--------------|
A||---------------------5h7-7-7-7-7-7-7-7/9------------------------------7-7-7-5-5-5|
E||-5-5-5-5-5-5-5-5-5h7-------------------------------------------------------------|


G||-----------------------------------------------------------------------------|
D||----------------------------------------7/5-5-5-5-5-5-5-5-8-8-8-8-8-8-8-8-8--|
A||---------------------5h7-7-7-7-7-7-7-7/9-------------------------------------|
E||-5-5-5-5-5-5-5-5-5h7---------------------------------------------------------|



Chorus
G||----------------------------------------------|
D||----------------------------------------------|
A||-7h9-9-7-5-5-7h9-9-7h9-9-7-5-5-7h9-9/12-12-12-|
E||----------------------------------------------|

breakdown part play as many times necessary
G||----------------------------------------------|
D||----------------------------------------------|
A||--5---3--0-1-3-5---3--0--0-1-3----------------|
E||----------------------------------------------|
 

Circles


Chitarra

TABBED BY: Juan M. Sanchez (Questo indirizzo email è protetto dagli spambots. È necessario abilitare JavaScript per vederlo.)
----------------------------------------------------------------


Accordatura: D A D G B E
Chitarra: 6 Corde Elettrica

intro
--------------------------x3
E--------------------------- |-------------------------------
B--------------------------- |-------------------------------
G------------------5-5-5-5-- |-------------------------------
D------------------5-5-5-5-- |-----------------3/5-5-5-------
A------5-----5-----3-3-3-3-- |-----1-----1-----3/5-5-5-------
D--0-3---0-3---3-0---------- |-0-3---0-3---3-0-3/5-5-5-------


E--------------------------------------------
B--------------------------------------------
G-----------------5------------------------5-
D--0-0-x-x-0-0--0-5-0-0-x-x-0-0-x-x-0-0--0-5-
A--0-0-x-x-0-0--0-3-0-0-x-x-0-0-x-x-0-0--0-3-
D--0-0-x-x-0-0--0---0-0-x-x-0-0-x-x-0-0--0---


You saw me lost ...
E-------------------------------------------------------------------
B-------------------------------------------------------------------
G--7-7-x-7-7/17--7-7-x-7-7/17--10-10-10-----------------------------
D------------------------------10-10-10---10-10-10---6-6-6---3-3-3--
A-------------------------------8--8--8---10-10-10---6-6-6---3-3-3--
D---------------------------------------7-10-10-10-3-6-6-6-0-3-3-3-0

... away from me
E-------------------------------------------------------------------------
B-------------------------------------------------------------------------
G-------5-5-5-5-5--------5-5-5-5-5--------5-5-5-5-5--------5-5-5-5-5-5-5-5
D--1--1-5-5-5-5-5-0-1--1-5-5-5-5-5-0-1--1-5-5-5-5-5-0-1--1-5-5-5-5-5-5-5-5
A--1--1-3-3-3-3-3-0-1--1-3-3-3-3-3-0-1--1-3-3-3-3-3-0-1--1-3-3-3-3-3-3-3-3
D--1--1-----------0-1--1-----------0-1--1-----------0-1--1----------------

Hey, what would ...
--------------------------------x3
E--------------------------------- |--------------------------------
B--------------------------------- |--------------------------------
G----7~-7--7--7--7~-7-5-5-5-5----- |--------------------------------
D---------------------5-5-5-5----- |--0/3--3-3-3-3-3-3/8--8-8-8-8-8-
A--5-----5--5--5------3-3-3-3----- |--0/3--3-3-3-3-3-3/8--8-8-8-8-8-
D--------------------------------- |--0/3--3-3-3-3-3-3/8--8-8-8-8-8-

Round and round we go ...
E--------------------(1)--------------------(1)---------------------
B-------(6)-------(6)(4)-------(6)-------(6)(4)---------------------
G-------(5)-------(5)(3)-------(5)-------(5)(3)---------------------
D--5--0--3---5--0--3--1---5--0--3---5--0--3--1----------------------
A--5--0--3---5--0--3--1---5--0--3---5--0--3--1----------------------
D--5--0--3---5--0--3--1---5--0--3---5--0--3--1----------------------

(intro)
Round and round and round ...
x2
E----------------------------------------------------
B----------------------------------------------------
G-----------------5-------------------------5--------
D--0-0-x-x-0-0--0-5--0-0-x-x-0-0-x-x-0-0--0-5--------
A--0-0-x-x-0-0--0-3--0-0-x-x-0-0-x-x-0-0--0-3--------
D--0-0-x-x-0-0--0----0-0-x-x-0-0-x-x-0-0--0----------


 

Basso

TABBED BY: Jon Dixit (Questo indirizzo email è protetto dagli spambots. È necessario abilitare JavaScript per vederlo.)
----------------------------------------------------------------


Accordatura: D A D G
Basso: 4 Corde

intro 3 times then
G||---------------------------|--------------------------|
D||---------------------------|--------------------------|
A||-----5-----5-----3-3-3-3---|-----1-----1--------------|
D||-0-3---0-3---3-0-----------|-0-3---0-3----0/3/5-5-5-5-|

Verse do for however many time needed then go to
G||--------------------------------------|--------------------------|
D||--------------------------------------|--------------------------|
A||--------------------------------------|-----------3-3-3-3-3-3----|
D||-0-0--12/-0-0-12/-15-15-10-10-6-6-3-3-|-1-1-1-1h3----------------|

Chorus
G||------------------------------------------------|
D||---------------(do this as many times as needed)|
A||--5-5-5-5-5-5-5-5-3-3-5-5-5-5-5-5-5-5-3-3-------|
D||------------------------------------------------|

G||-------------------|
D||-------------------|
A||-------------------| just keep repeating untill verse again.
D||3-3-3-3-3/8-8-8-8-8|

Breakdown thing
G||-------------------|
D||-------------------|
A||---5--1--r---5--1--| repeat for however many times...
D||-5---------5------1|
 

Wish You Were Here


Chitarra

TABBED BY: Juan M. Sanchez (Questo indirizzo email è protetto dagli spambots. È necessario abilitare JavaScript per vederlo.)
----------------------------------------------------------------


Accordatura: Standard (E A D G B E)
Chitarra: 6 Corde Elettrica e Acustica

Intro (Acoustic Guitar):
E|------------------------------------------------------------|
B|-----0-0----------------------------------------------------|
G|--2--2-2--------------------4--4-4--2-2---2---2-------------|
D|--2--2-2--2--2-2-2--2--2-2--4--4-4--2-2-2-2-2-2-------------|
A|--0--0-0--2--2-2-2--2--2-2--2--2-2--0-0-2-0-2-0-------------|
E|----------0--0-0-0--0--0-0--------------0---0---------------|

E|------------------------------------------------------------|
B|-----0-0----------------------------------------------------|
G|--2--2-2--------------------------------4-4-----10-10\11-11-|
D|--2--2-2--2--2-2-2--2--2-2--4--4-4--2-2-4-4-----x--x-\11-11-|
A|--0--0-0--2--2-2-2--2--2-2--4--4-4--2-2-2-2-----7--7-\9--9--|
E|----------0--0-0-0--0--0-0--2--2-2--0-0---------------------|

Intro pt. 2/(0:12)
(Use Distortion and if 2 guitars are available, then let the acoustic guitar continue its riff from before):

Play 2 Times
E|------------------------------------------------------------|
B|------------------------------------------------------------|
G|--2--2-2------------------4--4-4--2--2-2---2---2---2--------|
D|--2--2-2--2--2-2--2--2-2--4--4-4--2--2-2-2-2-2-2-2-2--------|
A|--0--0-0--2--2-2--2--2-2--2--2-2--0--0-0-2-0-2-0-2-0--------|
E|----------0--0-0--0--0-0-----------------0---0---0----------|

E|------------------------------------------------------------|
B|------------------------------------------------------------|
G|--2--2-2--------------------------2--2-2---2---2---2--------|
D|--2--2-2--2--2-2--2--2-2--4--4-4--2--2-2-2-2-2-2-2-2--------|
A|--0--0-0--2--2-2--2--2-2--4--4-4--0--0-0-2-0-2-0-2-0--------|
E|----------0--0-0--0--0-0--2--2-2---------0----0--0----------|

Verse
(use delay/echo, whatever you need to make it space sounding).
This is based upon the A major pentatonic scale, so you can just make up what you want really if you're playing it live and it'll sound ok.:

Play 4 Times
E|-------------------------4----------------------------------|
B|--5-5-5h7--------------5---5--------------------------------|
G|----------6--------4h6-------6------------------------------|
D|------------------------------------------------------------|
A|------------------------------------------------------------|
E|------------------------------------------------------------|

E|-------------------------4----------------------------------|
B|--5-5-5h7--------------5---5--------------------------------|
G|----------6--------4h6-------6------------------------------|
D|------------------------------------------------------------|
A|------------------------------------------------------------|
E|------------------------------------------------------------|

Chorus (Distortion):
Play 2 Times
E|------------------------------------------------------------|
B|------------------------------------------------------------|
G|--2--2-2------------------4--4-4--2--2-2---2---2---2--------|
D|--2--2-2--2--2-2--2--2-2--4--4-4--2--2-2-2-2-2-2-2-2--------|
A|--0--0-0--2--2-2--2--2-2--2--2-2--0--0-0-2-0-2-0-2-0--------|
E|----------0--0-0--0--0-0-----------------0---0---0----------|

E|------------------------------------------------------------|
B|------------------------------------------------------------|
G|--2--2-2--------------------------2--2-2---2---2---2--------|
D|--2--2-2--2--2-2--2--2-2--4--4-4--2--2-2-2-2-2-2-2-2--------|
A|--0--0-0--2--2-2--2--2-2--4--4-4--0--0-0-2-0-2-0-2-0--------|
E|----------0--0-0--0--0-0--2--2-2---------0----0--0----------|

1st Part of Interlude: Honestly, I can't figure it out...so please add it in a correction and then I can add it to this tab and then give you credit. Please if you have some spare time, tab it!

2nd Part of Interlude is the opening riff. Then go to the chorus riff and let the A chord ring out until the end.
 

Just a Phase


Chitarra

TABBED BY: Juan M. Sanchez (Questo indirizzo email è protetto dagli spambots. È necessario abilitare JavaScript per vederlo.)
----------------------------------------------------------------


Accordatura: Standard (E A D G B E)
Chitarra: 6 Corde Acustica e Elettrica

intro
---------------------------------------2--- ------2-----3--2--
---------------------------------------3--- ------3-----3--2--
-----------0---6---4-------0-----------4--- ---1--4--1--4--3--
-------0^5---0---7---5-0^2---0-----2---4--- ---2--4--2--5--4--
---0-4-------------------------0-2---2-2--- ---2--2--2--5--4--
-0----------------------------------------- ------------3--2--

main riff
---------------------------------------------------
-------5-----------------------5----------5--------
-------6-----------0-----------6----------6--------
-----6---6-------4---4-------6---6------6---6------
---7-------7---5-------5---7-------7--4---------6--
-0-----------0-----------0--------------------4----

Who are you? ...
------------------------------------------------------------------------------
------------------------------------------------------------------------------
-------0-------------------0-------------------0-------------------0----------
-----6---6---------------6---6---------------6---6---------------6---6--------
---4-------4---4---4---4-------4---4---4---4-------4---4---4---4-------4------
-5-----------5---4---5-----------5---4---5-----------5---4---5-----------5/-8-

It's just a phase ...
------------------------------------(0)-----------
---------------------------------(0)(0)-----------
-------------------------2--2--2--2--2------------
-10--10--10--6--6--2--2--2--2--2--2--2--5-5-5-----
-10--10--10--6--6--2--2--0--0--0--0--0--5-5-5-----
--8---8---8--4--4--0--0-----------------3-3-3-0---
 

11am


Chitarra

TABBED BY: Juan M. Sanchez (Questo indirizzo email è protetto dagli spambots. È necessario abilitare JavaScript per vederlo.)
----------------------------------------------------------------


Accordatura: Standard (E A D G B E)
Chitarra: 6 Corde Elettrica

intro
------------------------------x3
E------------------------------- |----------------------------------
B--------0--0-0----------------- |--------0--0-0--------------------
G--------0--0-0----------------- |--------0--0-0--------------------
D--2-x-x-2--2-2-------2^0---0--- |--2-x-x-2--2-2---0-4---0-2^0---0--
A--2-x-x----------3------------- |--2-x-x--------0-------------3----
E--0-x-x--------3---3-----3----- |--0-x-x--------------3------------

E--------0--0-0----------------------0--0-0--------------------
B--------0--0-0-1--1-1-1--1-1--------0--0-0--------------------
G--------0--0-0-0--0-0-0--0-0--------0--0-0--------------------
D--2-x-x-2--2-2-2--2-2-2--2-2--2-x-x-2--2-2---0-4---0-2^0---0--
A--2-x-x--------3--3-3-3--3-3--2-x-x--------0-------------3----
E--0-x-x--------3--3-3-3--3-3--0-x-x--------------3------------

E--------0--0-0---------------0-----0--0-0------------------
B--------0--0-0-1--1-1-1--1-1-0-----0--0-0-1-1--------------
G--------0--0-0-0--0-0-0--0-0-2-x-x-2--2-2-0-0--------------
D--2-x-x-2--2-2-2--2-2-2--2-2-2-x-x-2--2-2-2-2-0^2^0---0----
A--2-x-x--------3--3-3-3--3-3-0-x-x-0--0-0-3-3--------------
E--0-x-x--------3--3-3-3--3-3--------------3-3-------3------
(this part is the chorus too: "then again ...")

7 am ...-------------x2
E------------------------- |------------------------------------
B-----0--0-0-------------- |---0--0-0---------3--3--------------
G-----4--4-4-------------- |---4--4-4-0--0-0--2--2--0-----------
D-----2--2-2-----2^0---0-- |---2--2-2-2--2-2--0--0--2--0^2^0---0
A--2----------3----------- |-2--------3--3-3--------3-----------
E--0----------3------3---- |-0--------3--3-3--------3--------3--

forgive my indecision ...
E---------------------------------------------------------0-----0---0---0-
B----------------------------------------------------------0----0---0---0-
G--------4-----4--4-----4-----4-------4-----4--4----4-------4---4---4---2-
D----2-----2--------2-----2-------2-----2--------2----2------2--2---5---3-
A--0---0-----0--------0-----0---3---3-----3--------3----3-----0-0---5---3-
E-------------------------------------------------------------------3---1-

... out of that ride 12 pm and my dusty ...
---------------x3 --------------------x3
E----------- ----------- |---------- ----0--------------0-0-0-----0------
B----0-x---- ---0-x----- |---0-x---- ------0------------3-3---3-----3----
G----4-x-2-- ---4-x-2^0- |---4-x-2-- --1-----1--1-1-1-1-1-1-----1-----1--
D--5-5-x-3-- -5-5-x-3--- |-5-5-x-3-- --2--------2-2-2-2-2-2-------------2
A--5-----3-- -5-----3--- |-5-----3-- --2--------2-2-2-2-2-2--------------
E--3-----1-- -3-----1--- |-3-----1-- --0--------0-0-0-0-0-0--------------




Basso

TABBED BY: Jon Dixit (Questo indirizzo email è protetto dagli spambots. È necessario abilitare JavaScript per vederlo.)
----------------------------------------------------------------


Accordatura: Standard (E A D G )
Basso: 4 Corde

 

intro/chorus
G||-------------------------------------------------------------------------------------------|
D||-------------------------------------------------------------------------------------------|
A||--7-7-7-7-7-7------------7-7-7-7-7-7/5-5-5/3-3-3--7-7-7-7-7-7------------------------------|
E||--------------8x8x8x8x8x--------------------------------------8x8x8x8x8x-5-5-5-5/8-8-8-8-8-|

verse
G||-----------------------------------------------------|
D||-----------------------------------------------------|
A||--7/3--7/3---7/3--5/3-------3-3-3--------------------|
E||----------------------5-5-5-------5-5-5-5-3-3-3-1-1--|
 

Blood on the Ground


Chitarra

TABBED BY: Juan M. Sanchez (Questo indirizzo email è protetto dagli spambots. È necessario abilitare JavaScript per vederlo.)
----------------------------------------------------------------


Accordatura: D A D G B E
Chitarra: 6 Corde Elettrica

---------I don't wanna talk ..
---------x3
E--0-- ----------------------------------------
B--7-- ----------------------------------------
G-11-- -x-11-11-x-11-x-11-11-x-11-x------------
D-10-- -x-10-10-x-10-x-10-10-x-10-x--9-9-3-3-0-
A--9-- -x--9--9-x--9-x--9--9-x--9-x--9-9-3-3-0-
D--0-- -x--0--0-x--0-x--0--0-x--0-x--9-9-3-3-0-

... of what I might say.
E---------------------------------------------------------
B---------------------------------------------------------
G-11-x-11-x-11-11-x-11-x-11b-11b-11b-11b-11b-11b-11b-b11--
D-10-x-10-x-10-10-x-10-x-10b-10b-10b-10b-10b-10b-10b-b10--
A--9-x--9-x--9--9-x--9-x--9b--9b--9b--9b--9b--9b--9b--b9--
D--0-x--0-x--0--0-x--0-x--0b--0b--0b--0b--0b--0b--0b--b0--

0:30
(chorus too)
x3
E-----------------------------------
B-----------------------------------
G-11-x-11-x-11-11-x-11-x------------
D-10-x-10-x-10-10-x-10-x--9-9-3-3-0-
A--9-x--9-x--9--9-x--9-x--9-9-3-3-0-
D--0-x--0-x--0--0-x--0-x--9-9-3-3-0-


E-----------------------------------
B-----------------------------------
G-----------------------------------
D--5-x--5--5-x-5--x-3-3-3-3-3-3-(0)-
A--5-x--5--5-x-5--x-3-3-3-3-3-3-(0)-
D--5-x-(5)(5)x-5--x-3-3-3-3-3-3-(0)-

Hand over my ...
x10
E-----------------------------------
B-----------------------------------
G-----------------------------------
D-----0-------7-------5-------5-----
A---0---0---7---7---3---3---3---3---
D-0-------7-------5-------3---------

... u at all.
E-----------------------------------
B-----------------------------------
G-----------------------------------
D--9-9-9-5-5-5-3--3-3-3-x-3---------
A--9-9-9-5-5-5-3--3-3-3-x-3---------
D--9-9-9-5-5-5-3--3-3-3-x-3---------

2:50 & 4:07
x3
E----------------------------- ----------------------------
B----------------------------- ----------------------------
G----------------------------- ----------------------------
D-0-x-0-x-0-0-x-0-x-9-9-3-3-0- -0-x-0-x-0-0-x-0-3-3-3-3-3-3
A-0-x-0-x-0-0-x-0-x-9-9-3-3-0- -0-x-0-x-0-0-x-0-3-3-3-3-3-3
D-0-x-0-x-0-0-x-0-x-9-9-3-3-0- -0-x-0-x-0-0-x-0-3-3-3-3-3-3

x4
E-----------------------------------------0------
B--------------------------------7-7b7---7-------
G-(0)------0------------------0--5-5b5--5-----0-0
D------3--------3-0-----3---3----------0------0-0
A----5---5------5---0-2---2----------------------
D--5----------5----------------------------------

E------------------------------------------------
B------------------------------------------------
G------------------------------------------------
D------------------------------------------------
A------------------------------------------------
D---xxxxxxxxxxxxxxxxxxxxxxxx---------------------
 

Mexico


Chitarra

TABBED BY: Noodles
----------------------------------------------------------------


Accordatura: Standard (E A D G B E)
Chitarra: 6 Corde Acustica

------------------------------------------------------
------------------------------------------------------
------9-----9------5-----5-----7------7------2-----2--
----9-9---9-9----5-5---5-5-----8------8------3-----3--
--7-----7------3-----3-------8------8------3-----3----
---------------------------6------6------1-----1------
Intro 2x And the verse x4

-------------------------------------------------------------------
-------------------------------------------------------------------
--0000--------------5----------------------------------------------
--2222---55555----5---5---5-777777----2----55555--777777-555555--x2
--2222---55555--3-------3---777777---2-2-2-55555--777777-555555----
--0000---33333--------------555555--0---0--33333--555555-333333----
Chorus --------------------^ONLY 2nd time, otherwise same as before

-----------------------------------------------------------------------
-----------------------------------------------------------------------
--------------------------------5555555---x3------------------555555555
--555555--777777777--555555555--5555555-----------77777777----555555555
--555555--777777777--555555555--3333333-----------77777777----333333333
--333333--555555555--333333333--------------------55555555-------------
Interlude ----------------------------------then

Enjoy!
 

Warning


Chitarra

----------------------------------------------------------------


Accordatura: Standard (E A D G B E)
Chitarra: 6 Corde Elettrica

Intro - Part 1
(w/ flanger/delay)

---A ---------B-----------------------C
------I---------------I-------------------------------
------I---------------I-------------------------------
------I---------------I-------------------------------
-9~~--I--7(7)---9~----I--7(7)--5-----------4----------
-9~~--I--7(7)---9~----I--7(7)--5-----------4----------
-7~~--I--5(5)---7~----I--5(5)--3(3)(3)(3)--2(2)(2)(2)-

(A,B)x3, then, (A,C)

------------------------------------------------------

Part 2 (When it gets higher)
---A---------B---------------------C
------I--------------I-------------------------------
------I--------------I-------------------------------
-8~~--I--6(6)--8~----I--6(6)--4-----------3----------
-9~~--I--7(7)--9~----I--7(7)--5-----------4----------
-9~~--I--7(7)--9~----I--7(7)--5-----------4----------
-7~~--I--5(5)--7~----I--5(5)--3(3)(3)(3)--2(2)(2)(2)-

(Same sequence)

-----------------------------------------------------

Part 3 (When it gets heavy{ish})
(no more delay, don't use the strum marks as a definitive guide - they're just approximations)

A
-----------------------I---------------------------------
-----------------------I---------------------------------
-----------------------I---------------------------------
-9\\\\\\\\\\--7\-------I-5\\\\\\\\\\-4\\\\\\\\-----------
-9\\\\\\\\\\--7\-------I-5\\\\\\\\\\-4\\\\\\\\-----------
-7\\\\\\\\\\--5\-------I-3\\\\\\\\\\-2\\\\\\\\-----------

(A)x3, then, (B)

------------------------------------------------------

Pre-Chorus
---------A------------------------ B---------------------------- C
--------------------I--------------------------I---------------------------
--------------------I--------------------------I---------------------------
-8------------------I--6(6)--8-----------------I-6(6)-4----------3---------
-9------------------I--7(7)--9-----------------I-7(7)-5----------4---------
-9------------------I--7(7)--9-----------------I-7(7)-5----------4---------
-7(7)(7)(7)(7)(7)---I--5(5)--7(7)(7)(7)(7)(7)--I-5(5)-3(3)(3)(3)-2(2)(2)(2)

(A,B)x3, then, (A,C)

-------------------------------------------------------

*Chorus is the same as Part 3, and the Verse is the same as "Intro".

-------------------------------------------------------
 

Echo


Chitarra

TABBED BY: Juan M. Sanchez (Questo indirizzo email è protetto dagli spambots. È necessario abilitare JavaScript per vederlo.)
----------------------------------------------------------------


Accordatura: D A D G B E
Chitarra: 6 Corde Elettrica

intro (chorus too)
x4
E------0--------------------------------------------------
B------0--------------------------------------------------
G--------2/4-4/7-7/9-9b/7-7-------4---4/7--7/4--4-4b/2-2--
D--------2/4-4/7-7/9-9b/7-7-----4-----4/7--7/4-4--4b/2-2--
A----0----------------------0^2---------------------------
D--0------------------------------------------------------

There's something about ...
x2
E--0----------0----------0---------------------0----------0--------------
B---0-------0---0------3---3-----------------0---0------3---3------------
G----2----2-------2----4-----4------2/4----2-------2----4-----4-----2/4--
D-----0-------------4--4-------4----2/4--------------4--4-------4---2/4--
A------0---------------2---------2----------------------2---------2------
D-------0-------------------------------0-------------------------------0

My biggest fear ...
x2
E------------------------------------------ ---------
B--------7----------7--------6----------6-- --6------
G--------7---------7---------5---------5--- --5------
D--------5--------5----------3--------3---- --3------
A----5--------5----------3--------3-------- --3------
D--5---5----5---5------3---3----3---3------ --3------

Guitar solo. I think they are harmonics, but can't find them. Who knows, maybe is an effect...

E---------------------------------------------------------7---------------
B--12-10-7---------------------------------------------7----10-7----------
G----------9b-7b------------------------7-9-7--7-9-7-9-----------9b-7-----
D----------------9b-7-9-------------7-9-------------------------------9-7-
A------------------------7-9-7--7-9---------------------------------------
D-------------------------------------------------------------------------
 

Have You Ever


Chitarra

TABBED BY: Juan M. Sanchez (Questo indirizzo email è protetto dagli spambots. È necessario abilitare JavaScript per vederlo.)
----------------------------------------------------------------


Accordatura: D A D G B E
Chitarra: 6 Corde Elettrica

x4
D-----------------
B-----------------
G-----------------
D-----5----5----5-
A-----5----5----5-
D--00-5-00-5-00-5-

x3
E---------------------------------- -----------------------------------
B---------------------------------- -----------------------------------
G-----------------------------0-3-- ------------------------------0-3--
D----5----5----5-5-x-0-0--0-3-0-3-- -----5----5----5-5-x-0-0--0-3-0-3--
A----5----5----5-5-x-0-0--0-3-0-3-- -----5----5----5-5-x-0-0--0-3-0-3--
D-00-5-00-5-00-5-5-x-0-0--0-3------ --00-5-00-5-00-5-5-x-0-0--0-3---3--

To get up and walk ...
E----------------------------------------------------------------------
B----------------------------------------------------------------------
G----------------------------------------------------------------------
D--1-1-1-0-1-x-5-5-7-7-3-3-5-5-0-1-1-1-0-1-x-8-8-8-8-8-8-8-8-----------
A--1-1-1-0-1-x-5-5-7-7-3-3-5-5-0-1-1-1-0-1-x-8-8-8-8-8-8-8-8-----------
D--1-1-1-0-1-x-5-5-7-7-3-3-5-5-0-1-1-1-0-1-x-8-8-8-8-8-8-8-8-----------

E----------------------------------------------------------------------
B----------------------------------------------------------------------
G----------------------------------------------------------------------
D-0-1-1-1-0-1-x-5-5-7-7-3-3-5-5-0-1-1-1-0-1-x-8-8-8-8-8--00000---------
A-0-1-1-1-0-1-x-5-5-7-7-3-3-5-5-0-1-1-1-0-1-x-8-8-8-8-8--00000---------
D-0-1-1-1-0-1-x-5-5-7-7-3-3-5-5-0-1-1-1-0-1-x-8-8-8-8-8--00000---------

On the back of every ...
E----------------------------------------------------------------------
B----------------------------------------------------------------------
G----------------------------------------------------------------------
D--1-1-1-0-1-x-5-5-7-7-3-3-5-5-0-1-1-1-0-1-x-8-8-8-8-8-8-8-8-----------
A--1-1-1-0-1-x-5-5-7-7-3-3-5-5-0-1-1-1-0-1-x-8-8-8-8-8-8-8-8-----------
D--1-1-1-0-1-x-5-5-7-7-3-3-5-5-0-1-1-1-0-1-x-8-8-8-8-8-8-8-8-----------

E-----------------------------------------------------------------------------
B-----------------------------------------------------------------------------
G-----------------------------------------------------------------------------
D-0-1-1-1-0-1-x-5-5-7-7-3-3-5-5-0-1-1-1-0-1-x-3-3-3-3-3-3-3-3/8-8-8-8-8-8-8-8-
A-0-1-1-1-0-1-x-5-5-7-7-3-3-5-5-0-1-1-1-0-1-x-3-3-3-3-3-3-3-3/8-8-8-8-8-8-8-8-
D-0-1-1-1-0-1-x-5-5-7-7-3-3-5-5-0-1-1-1-0-1-x-3-3-3-3-3-3-3-3/8-8-8-8-8-8-8-8-

Have you ever tried ...
E--------------------------------------------------------------
B--------------------------------------------------------------
G--------5-5/7-7--7-7-7-7--7-7---------------------------------
D--0-3-0-5-5/7-7--7-7-7-7--7-7-8-8-8-5-5-5-3--3-3-3-3/10-10-10-
A--0-3-0-3-3/5-5--5-5-5-5--5-5-8-8-8-5-5-5-3--3-3-3-3/10-10-10-
D--0-3-0-----------------------8-8-8-5-5-5-3--3-3-3-3/10-10-10-

E--------------------------------------------------------------
B--------------------------------------------------------------
G--------5-5/7-7--7-7-7-7--7-7-7-7-7---------------------------
D--0-3-0-5-5/7-7--7-7-7-7--7-7-7-7-7--8-8-8-3-3-3-3/10-10-10---
A--0-3-0-3-3/5-5--5-5-5-5--5-5-5-5-5--8-8-8-3-3-3-3/10-10-10---
D--0-3-0------------------------------8-8-8-3-3-3-3/10-10-10---

2:02
x2 |harm.|
E---------------------------------------5--------
B------------------------------------------------
G----5--7-----7--------------0-------------------
D-3--3--7---7---------3----3--------5------------
A-3--0--5-----------3----1--------5--------------
D-3---------------3-------------5----------------

|harm|
E------------------------------------------------------------------------
B------------------------------------------------------------------------
G------------5------7------7--------------0------------------------------
D-----3----3------7------7--------3-----3--------5--5--5-5--5-5--5-5-5-5-
A---3----0------5---------------3-----1--------5----5--5-5--5-5--5-5-5-5-
D-3---------------------------3--------------5------5--5-5--5-5--5-5-5-5-
 

Are You in?


Basso

TABBED BY: Jon Dixit (Questo indirizzo email è protetto dagli spambots. È necessario abilitare JavaScript per vederlo.)
----------------------------------------------------------------


Accordatura: Standard (E A D G )
Basso: 4 Corde


Intro do that for however times u do it then :
G||-9/11---r--9/11-------------|----14h16--14--11-----------------|
D||-7/9----r--7/9--11----------|----------------------------------|
A||--------------------8/------|----------------------------------|
E||----------------------------|----------------------------------|

verse
do however many time u do it
G||------------------------2-2h4p2-|----------------------------------|
D||------------------4---2---------|----------------------------------|
A||--5-5-2-------------------------|--5-5-2---------2-2-1-2-----------|
E||--------5-5-5-2-2---2-----------|--------5-5-5-2---------0-1-2-(0)-|

chorus repeat twice and end with this ending.
G||---------------------------|----------|
D||---------------------------|----------|
A||-5-5-5-5-------------------|----------|
E||---------5-5-5-5-2-2-2-2-2-|-3-3-5-5--|

Breakdown Thingy I think.. repeat however many
times i duno
G||---------0-----2-----4---------|
D||-------0-----2-----4-----------|
A||-------------------------7-----|
E||-9-0-------3-----5---------7---|

at the end of this there r just some slides...
upa dn down and back up 2
G||-14h16--14--11-----------------|
D||-------------------------------|
A||-------------------------------|
E||-------------------------------|

then the verse and chrous..
 

Under My Umbrella


Chitarra

TABBED BY: Juan M. Sanchez (Questo indirizzo email è protetto dagli spambots. È necessario abilitare JavaScript per vederlo.)
----------------------------------------------------------------


Accordatura: Standard (E A D G B E)
Chitarra: 6 Corde Elettrica

E-----------------------------------------
B-----------------------------------------
G--10-10-10--10-10-10--10-10-10--10-10-10-
D--10-10-10--10-10-10--10-10-10--10-10-10-
A---6--6--6---6--6--6---6--6--6---6--6--6-
E-----------------------------------------

E---------------------------------------------------------
B--6-6-6--6-6-6-----------------------------------6-6-6-6-
G--6-6-6--6-6-6--6-6-6--6-6-6---------------------5-5-5-5-
D--6-6-6--6-6-6--6-6-6--6-6-6--3-3-3--3-3-3--3-3----------
A--4-4-4--4-4-4--4-4-4--4-4-4--3-3-3--3-3-3--3-3----------
E------------------------------1-1-1--1-1-1--1-1----------

E---------------------------------------------------------
B---------------------------------------------------------
G------------------6-8-8-8/6-6-6-6------------------------
D--6-6-6-6-6-6-6-6-6-8-8-8/6-6-6-6------------------------
A--6-6-6-6-6-6-6-6-4-6-6-6/4-4-4-4------------------------
E--4-4-4-4-4-4-4-4----------------------------------------

bass only part -----------x3
E---------------------------- ----------------------------
B---------------------------- ----------------------------
G---------------------------- ----------------------------
D---------------------------- ----------------------------
A--4-----4---------------3-3- ----------------------------
E----1-1---1-1--1--1-4-4----- -4-1-1--4-1-1--1--1-1-1-0-0-

E------------------------
B------17----17----17b~--
G---15----15----15-------
D------------------------
A------------------------
E------------------------

When I close my eyes ...
E-----------------------------------------------------
B--10-10-8-8---10-10-8-8---10-10-8-8-8---10-10-8-8-5--
G------------6-----------5-------------6--------------
D-----------------------------------------------------
A-----------------------------------------------------
E-----------------------------------------------------

This eyes are not your eyes ...
E------------------------------------------
B------------------------------------------
G--10-10-10--10-10-10--10-10-10--10-10-10--
D--10-10-10--10-10-10--10-10-10--10-10-10--
A---6--6--6---6--6--6---6--6--6---6--6--6--
E------------------------------------------

E---------------------------------------------------------
B--6-6-6--6-6-6-----------------------------------6-6-6-6-
G--6-6-6--6-6-6--6-6-6--6-6-6---------------------5-5-5-5-
D--6-6-6--6-6-6--6-6-6--6-6-6--3-3-3--3-3-3--3-3----------
A--4-4-4--4-4-4--4-4-4--4-4-4--3-3-3--3-3-3--3-3----------
E------------------------------1-1-1--1-1-1--1-1----------

E---------------------------------------------------------
B---------------------------------------------------------
G------------------6-8-8-8/6-6-6-6-6----------------------
D--6-6-6-6-6-6-6-6-6-8-8-8/6-6-6-6-6----------------------
A--6-6-6-6-6-6-6-6-4-6-6-6/4-4-4-4-4----------------------
E--4-4-4-4-4-4-4-4----------------------------------------

E-----------------------------------------
B-----------------------------------------
G--10-10-10--10-10-10--10-10-10--10-10-10-
D--10-10-10--10-10-10--10-10-10--10-10-10-
A---6--6--6---6--6--6---6--6--6---6--6--6-
E-----------------------------------------

E---------------------------------------------------------
B--6-6-6--6-6-6-------------------------------------------
G--6-6-6--6-6-6--6-6-6--6-6-6-----------------------------
D--6-6-6--6-6-6--6-6-6--6-6-6--6-6-6--6-6-6--6-6-6--6-6-6-
A--4-4-4--4-4-4--4-4-4--4-4-4--6-6-6--6-6-6--6-6-6--6-6-6-
E------------------------------4-4-4--4-4-4--4-4-4--4-4-4-

E-------------------------------------------------
B-------------------------------------------------
G---------------6-8-8-8/6-6-6-6-6-----------------
D--3-3-3-3-3-3--6-8-8-8/6-6-6-6-6-----------------
A--3-3-3-3-3-3--4-6-6-6/4-4-4-4-4-----------------
E--1-1-1-1-1-1------------------------------------

If this is right ...
E---------------------------------------------------------
B---------------------------------------------------------
G-----------6/8-8-8/6-6-6-6-6-----------6-6/8-8-8/6-6-6-6-
D--6-6/3-3--6/8-8-8/6-6-6-6-6--6-6/3-3--6-6/8-8-8/6-6-6-6-
A--6-6/3-3--4/6-6-6/4-4-4-4-4--6-6/3-3--4-4/6-6-6/4-4-4-4-
E--4-4/1-1---------------------4-4/1-1--------------------

E---------------------------------------------
B---------------------------------------------
G-----------6/8-8-8/6-6-6--4--4-4-4-4-4-4-4---
D--6-6/3-3--6/8-8-8/6-6-6--4--4-4-4-4-4-4-4-4-
A--6-6/3-3--4/6-6-6/4-4-4--2--2-2-2-2-2-2-2-4-
E--4-4/1-1----------------------------------2-

play very fast with the pick----| harm. x2
E---------------------------------------------
B---------------------------------------------
G----------5/13-9--7-9-7--5/13-9---7-7--------
D---------------------------------------------
A---------------------------------------------
E---------------------------------------------
 

Aqueous Transmission


Non disponibile
 

Cerca nel sito

Segui Incubus Italia

Segui la Band

Seguici su Twitter

JSN Epic template designed by JoomlaShine.com