Privilege


Chitarra

Accordatura: Standard (E A D G B E)
Chitarra: 6 Corde Elettrica


Intro
(pulito)

E|-------------------------------------------------------------|
B|------------------------------------------------------77-77--|
G|-------------6-----------------------------------------------|
D|--7--5-------6--7--7-5--4-5---7--5------7--7-5--------44-44--|
A|--7--5-------4--7--7-5--4-5---7--5------7--7-5---------------|
E|--5/-3-xx-------5--5-3--2-3---5/-3-xx---5--5-3---------------|


Post Intro
(distorsione)

E|--------------------------------------------------------|
B|-----------------------------------------------77-77-7--|
G|-----------6--------------------------------------------|
D|--7--5-----6--7--7-5--4-5---7--5----7--7------44-44--4--|
A|--7--5-----4--7--7-5--4-5---7--5----7--7----------------|
E|--5/-3--------5--5-3--2-3---5/-3----5--5----------------|


Verse
(distorsione)

E|--------------------------------------|
B|--------------------------------------|
G|--------------------------------------|
D|--------------------------------------|
A|--------------------------------------|
E|--5-3---0--5-3----55--3---0--5-3---6--|

Pre Chorus
(distorsione)

E|--9999--|
B|--9999--|
G|--------|
D|--------|
A|--------|
E|--------|

Chorus
(distorsione)

E|---------------------------------------|
B|---------------------------------------|
G|-----------6---------------7-7-7-55-5--|
D|--7--5-----6--7--7-5--4-5--7-7-7-55-5--|
A|--7--5-----4--7--7-5--4-5--5-5-5-33-3--|
E|--5/-3--------5--5-3--2-3--------------|

Part II

E|-----------------------------------|
B|-----------------------------------|
G|------------6----------------------|
D|---7--5-----6--7--7-5--4-5---3--3--|
A|---7--5-----4--7--7-5--4-5---3--3--|
E|---5/-3--------5--5-3--2-3---1--1--|






Basso

Accordatura: Standard (E A D G )
Basso: 4 Corde


Intro: La chitarra suona l'intro una volta da sola. Poi entra il basso. G----------------------------------------------------- D----------------------------------------------------- A---------3-------------------------3----------------- E--5p3--3---5--5p3--3-0h3--3-5p3--3---5--5--0-0-0-0---

G----------------------------------------------------- D----------------------------------------------------- A---------3-------------------------3----------------- E--5p3--3---5--5p3--3-0h3--3-5p3--3---5--5--X-X-------

Verse/Outro:

G----------------------------------------------------- D----------------------------------------------------- A----------------------------------------------------- E--5p3---5-3---5-5-3---5-3---(5)5/6-------------------

Prechorus:

G----------------------------------------------------- D----------------------------------------------------- A----------------------------------------------------- E--5-5-5-5---5-5-5-5---5-5-5-5---(5)5-5-5-5-----------

Chorus:

G----------------------------------------------------- D----------------------------------------------------- A---------3------------------5--5--5--0h3----3-------- E--5p3--3---5--5p3--3-0h3--3--------------------------

G----------------------------------------------------- D----------------------------------------------------- A---------3--------------------------------3---------- E--5p3--3---5--5p3--3-0h3--3--1-1-1-(1)1--------------

Order of the song:

1.Intro 2x

2. Verse 4x

3. Prechorus 2x

4. Chorus 2x

5. Verse 4x

6. Prechorus 2x

7. Chorus 2x

8. Verse 4x (over DJ)

9. Prechorus 2x

10. Chorus 2x

11. Outro 4x
 

Nowhere Fast


Chitarra

TABBED BY: Ryan Hegenauer (Questo indirizzo email è protetto dagli spambots. È necessario abilitare JavaScript per vederlo.)
----------------------------------------------------------------


Accordatura: Standard (D A D G B E)
Chitarra: 6 Corde Elettrica


USA UN EFFETTO PHASED/DELAY E POI UNA NORMALE DISTORSIONE
PER L'ASSOLO USA UN SITAR MA FATTO IN QUESTO MODO SUONA SIMILE


G-0-0--------------------------II
D-----4-4----------------------II
A---------5-5-0-0-333-888------II
D-------------0-0-333-888-0~~~-II


DISTORSIONE:


A-0--0-00-333-888-II 4TH -A-0--0--00-101010\333-II
D-0--0-00-333-888-II TIME D-0--0--00-101010\333-II


VERSE:
EFFETTO PHASE/DELAY
e------14----9----------14----9--10--6--*II
B-11--------10-----11--------10--11--7---II
G-11---------9-----11---------9--10--6---II
D-11---------------11-------------------*II


UN PO' QUI
D-5~~~~-8~~~~-5~~~~-10~~~~-II
A-5~~~~-8~~~~-5~~~~-10~~~~-II
D-5~~~~-8~~~~-5~~~~-10~~~~-II
..IN DEMAND......


ASSOLO
e-------------------9-----7-----------------------------------------II
B-------------7-------7-----7------------5----------------8-7-------II
G---------------6-------7-----7------------7------------------7----*II
D-----5---5/7-----4------------------5-------7--------8---------7---II
A---5---5--------------------------5---5-------5----8---8----------*II
D-5------------------------------5----------------8-----------------II


B-5/7-10-10-7-5-3-2/333-2/3-5-5-3-II
G-4/6-10-10-6-4-2-1/222-1/2-4-4-2-II
D-5/7-10-10-7-5-3-2/333-2/3-5-5-3-II


Basso

TABBED BY: Ryan Hegenauer (Questo indirizzo email è protetto dagli spambots. È necessario abilitare JavaScript per vederlo.)
----------------------------------------------------------------


Accordatura: Db Gb B E
Basso: 4 Corde


E------------II---------------------------II
B--**REST**--II*-------------------------*II
Gb-----------II*------------------/4-4-4-*II
Db-----------II----1--1-1--1/4-4-4/-------II


4th and 8th time
Gb----------/6-6-6\------*II
Db-1--1-1--1/-----\4-4-4-*II


verse
E-----------------------------14h15p14-
B-----------15~~~~~~-------17----------
Gb-------15----------15~~--------------
Db-13----------------------------------


E-------------------------------II
B-----------15~~~~~~-----------*II
Gb-------15----------15~~-4----*II
Db-13-----------------------5---II


INTERMEZZO
E-------3-2----------------II
B-----------2-------------*II
Gb---3---------1~~~~-1/4--*II
Db-1-----------------------II

Consequence


Chitarra

TABBED BY: Kevin Donovan (Questo indirizzo email è protetto dagli spambots. È necessario abilitare JavaScript per vederlo.)
----------------------------------------------------------------


Accordatura: Standard (E A D G B E)
Chitarra: 6 Corde Elettrica


Prima di tutto è bene spiegare l'accordo più usato per la canzone
perchè la maggior parte delle canzoni degli Incubus hanno accordi che
suonano molto strani quindi ecco il modo migliore per suonarlo.


Dito medio sulla A, indice D, anulare G, e il mignolo sulla B


Intro.…
E----------------------------------------------------------------------------
B-------------10------10/-----------5------5/-----------3--------------------
G----------9------9----9/---------5---5----5/--------------3-----------------
D-------8--------------8/-------4-----------4/-------2-----------------------
A----9-----------------9/-----5-------------5/----3--------------------------
E----------------------------------------------------------------------------


Verse…
E---------------------------------------------------------------------------
B--------------10----------------5-----------3------------2--------------
G-----------9------9----------5----5-----------3-------------2----------
D-------8-------------------4-------------2------------1-----------------
A----9-------------------5--------------3-----------2--------------------
E--------------------------------------------------------------------------


Chorus…
G-----4--3---------4--3--2---------il tempo non è giusto trovatelo dal CD
D--2--4--3----2---4--3--2----------
A--2--2--1----2---2--1-------------
E--0-----------0-------------------


G-----3----4-7-7-3-----------------
D--2--3---4--7-7-3-----------------
A--2--1---2--5-5-1-----------------
E--0-------------------------------


Break down…
D--7-7--7-7--5-5-5-5--3-3-3-3---------------
A--7-7--7-7--5-5-5-5--3-3-3-3---------------
E--5-5--5-5--3-3-3-3--1-1-1-1---------------


D--7-7--2-2--3-3--5-5--7-7--2--2------------
A--7-7--2-2--3-3--5-5--7-7--2--2------------
E--5-5--0-0--1-1--3-3--5-5--0--0------------


That's about it im not sure about a few spots but it sounds right but if
you figure any thing out that I didn't email me


Basso

Tabbed by: Mr__Sucubus
--------------------------------------------------------------------


Accordatura: Standard E A D G
Basso: 4 Corde


Suonate gli accordi con la canzone per trovare il tempo. Sono praticamente
sicuro che sia tutto giusto, o almeno nel modo in cui suona...
Enjoy!


1st Verse: (let ring then slide)
|------------------------------------------------------
|------------------------------------------------------
|--7-7-7-7-7--\3------------------------7H9----5H7-----
|-----------------x-x-x-8--7-7-7-7-7--7----7\5----5\4--


|------------------------------------------------------------
|------------------------------------------------------------
|-7-7-7-7-7---\3--------------------------7------5--------5--
|--------------------x-x-x-8--7-7-7-7-7-7---5-5-5---4-4-4----
...better clear the air before your son becomes a...


|------------------------------------------------
|------------------------------------------------
|--7 (12X's)-------------------------------------
|---------------7 (8X's)-5-5-5-5-4-4-4-----------
... man!


2nd Verse:
|-----------------------------------------------------------
|-----------------------------------------------------------
|-------rest---------------------------------7H9---5H7------
|----------------------x-x-x-8--7-7-7-7-7--7----7\5----5\4--


|-------------------------------------------------------------
|-------------------------------------------------------------
|--7-7-7-7-7--\3-------------------------7H9-----5H7----------
|------------------x-x-x-8--7-7-7-7-7--7------7\5----5\4------


|---------------------------------------------------------
|---------------------------------------------------------
|-7-7-7-7-7---\3----------------------7-------5--------5--
|-----------------x-x-x-8--7-7-7-7-7-7---5-5-5---4-4-4----


Chorus:
|-----------------------------------------
|-----------------------------------------
|--7 (12X's)------------------------------
|---------------7 (10X's)-5-5-5-----------


|-----------------------------------------
|-----------------------------------------
|--7 (12X's)------------------------------
|---------------7 (8X's)-5-5-5-5-4-4-4----


Bridge:
|-------------------------------
|-------------------------------
|-7-7-7-7-----------------------
|----------6--10-10-10-4--------


|----------------------------------
|----------------------------------
|----------------------------------
|-77--77--77--77--55--55--55--66---


|---------------- |------------------
|---------------- |------------------
|---------------- |------------------
|-9----4-5----0-- |-9----4-5----7----


Chorus:
|----------------------------------
|----------------------------------
|--7 (12X's)-----------------------
|---------------7 (10X's)-5-5-5----


|-----------------------------------
|-----------------------------------
|--7(12X's)-------------------------
|-----------7(8X's)-5-5-5-5-4-4-4---


|-------------------------------
|-------------------------------
|-7-7-7-7-----------------------
|----------6--10-10-10-4--------


E-Mail me with any questions, comments, or corrections at Questo indirizzo email è protetto dagli spambots. È necessario abilitare JavaScript per vederlo.

Taken from The Bass Tab Archive ~ http://www.basstabarchive.com
 

The Warmth


Chitarra

TABBED BY: Kyle Fisher (Questo indirizzo email è protetto dagli spambots. È necessario abilitare JavaScript per vederlo.)
----------------------------------------------------------------


Accordatura: Standard (E A D G B E)
Chitarra: 6 Corde Elettrica


^ Bend
> Hammer


intro. & verse *hanno un leggero delay(penso)*


--14^-----------------------------19------e
------17-15-17-15-------------------------b
--------------------17-16---16-------16---g
------------------------------------------d
------------------------------------------a
------------------------------------------E


part after intro. and the chorus *after intro. c'è un flanger e il chorus ha la distorsione*


--------------------------------------------------------------------e
--------------------------------------------------------------------b
--------------------------------------------------------------------g
-14-14-14-14-14---10-10-10-10-10---3-3-3-3-3---2-2-2-2-2------------d
-14-14-14-14-14---10-10-10-10-10---3-3-3-3-3---2-2-2-2-2------------a
-12-12-12-12-12----8--8---8--8--8----5-5-5-5-5---0-0-0-0-0----------E


bridge *suonato fino al ritorno del chorus quindi...usare il flanger*


-----------------------------e
-----------------------------b
-----------------------------g
-----------------------------d
-12>14--12>14----------------a
-----------------------------E


Basso

Accordatura: Standard E A D G
Basso: 4 Corde


La chitarra suona 4 volte
Poi... x4
G-----------------------------------------------------------------
D-----------------------------------------------------------------
A--------------10^------------------------------------------------
E--------------------12-12-12-12-8-8-8-8-3-3-3-3-0-0-0------------

Bridge- 
A tempo con il toms
G-----------------------------------------------------------------
D-----------------------------------------------------------------
A-----------------------------------------------------------------
E----------0----------0-------------------------------------------

Verse x4
G------------------------------------------------------------------
D------------------------------------------------------------------
A--------------10^-------------------------------------------------
E--------------------12-12-12-12-8-8-8-8-3-3-3-3-0-0-0-------------

Chorus x4
G-------------------------------------------------------------------
D-------------------------------------------------------------------
A-------------------------------------------------------------------
E---12-12-12-12-8-8-8-8-3-3-3-3-0-0-0-------------------------------

Verse x4
G------------------------------------------------------------------
D------------------------------------------------------------------
A--------------10^-------------------------------------------------
E--------------------12-12-12-12-8-8-8-8-3-3-3-3-0-0-0-------------

Chorus x4
G-------------------------------------------------------------------
D-------------------------------------------------------------------
A-------------------------------------------------------------------
E---12-12-12-12-8-8-8-8-3-3-3-3-0-0-0-------------------------------

Heavy Section-
suonare le note di basso a tempo con la grancassa
G------------------------------------------------------------------
D------------------------------------------------------------------
A------------------------------------------------------------------
E-7-7--7--7-7--7-7--7--7-7--7-7--7--7-7--7-7--7--7-7--7-7----------


G------------------------------------------------------------------
D------------------------------------------------------------------
A------------------------------------------------------------------
E-7--7-7--7-7--7--7-7--7-7--7--7-7--8-8--8--8-8--7-7--7------------


G------------------------------------------------------------------
D------------------------------------------------------------------
A------------------------------------------------------------------
E--7-7--8-8--8--8-8--7-7--7--7-7--0-0--0-0-0-0---------------------

Chorus x4
G-------------------------------------------------------------------
D-------------------------------------------------------------------
A-------------------------------------------------------------------
E---12-12-12-12-8-8-8-8-3-3-3-3-0-0-0-------------------------------

Outro-Verse x4
G------------------------------------------------------------------
D------------------------------------------------------------------
A--------------10^-------------------------------------------------
E--------------------12-12-12-12-8-8-8-8-3-3-3-3-0-0-0-------------
 

When It Comes


Chitarra

TABBED BY: Chris Theuns (Questo indirizzo email è protetto dagli spambots. È necessario abilitare JavaScript per vederlo.)
----------------------------------------------------------------


Accordatura: D A D G B E
Chitarra: 6 Corde Elettrica


H=hammer on


P=pull off


Intro – Muffled distortion w/ flange/phaser


e---------------------------------------------------------I
b---------------------------------------------------------I
g---------------------------------------------------------I x4
d---------------------------------------------------------I
a---------------------------------------------------------I
d-12-10-9-10-9h10p099-99-7-99991010-----------------------I


Verse
e---------------------------------------------------------I
b---------------------------------------------------------I
g---------------------------------------------------------I It’s coming around again…
d---------------------------------------------------------I
a--9------------------------------------------------------I
d-----9-9-0-0---------------------------------------------I


Clean w/ slight delay & chorus
e------------------0-----------------------------I--------------0-------------------I
b------------------0-----------------------------I--------------0-------------------I
g------------------0-------------------0------0--I--------------0------------------0I
d-4----------------0-4-----------------0------0--I-4------------4---4--------------0I
a----2-2---2-2--2-----2--2---2-2--2------2-------I----22-2--2-2-------22--2--2-2----I
d------------------------------------------------I----------------------------------I



When it comes…


Chorus w/distortion
e--------------------------------I----------------------I
b--------------------------------I----------------------I
g-------------7-7--4-4--------I--7-7--4-4---------------I
d--2----2---7-7--4-4----4-4I--7-7--4-4----4-------------I Tenere l'ultimo accordo dopo la 3a volta.
a--2----2---5-5--2-2p0-4-4 I-5-5--2-2p04----------------I
d--2----2------------------4-4I----------------4--------I
Just when you thought…


e--------------------------------------------------------------------------7--I
b-----------------------------------------------------------------------7-----I
g-6-6-6-6----------------------------------------------6-6-6-6--7-------------IArmonici per gli ultimi 3.
d-6-6-6-6--------4--4-4-4--4-----7--7-7-7--7----6-6-6-6-----------------------I
a-4-4-4-4--------4--4-4-4--4-----7--7-7-7--7----4-4-4-4-----------------------I
d-------------------4--4-4-4--4-----7--7-7-7--7-------------------------------I


What I’m looking for…
e--------------------------------------------------------I--------------------I
b--------------------------------------------------------I--------------------I
g--6-6-6-6--------------------------------------------I-----------------------I
d--6-6-6-6-------4--4-4-4--4-----7--7-7-7--7---I--4------5-5-5----------------I
4-4-4-4-------4--4-4-4--4-----7--7-7-7--7---I--4------5--5-5—-----------------I
d-------------------4--4-4-4--4-----7--7-7-7--7--I--4-------5-5-5-------------I


a-------------------I
b-------------------I
g-------------------I
d----0--------------I
a----0--------------I
d----0--------------I


Lasciare ripetere l'ultima frase e finire con questo.
e-----------------------------------------------------------I
b-----------------------------------------------------------I
g-----------------------------------------------------------I End riff.
d-----------------------------------------------------------I
a-9-9-9--0-9--0-9--0-9--0-9-0-9-9-9-9-10-10-----------------I
d----9-9-0-9---0-9--0-9--9-0-9-9-9-910-10-------------------I


That’s pretty much it. This is my first attempt at tabbing something so
feel free to email any comments or corrections to: Questo indirizzo email è protetto dagli spambots. È necessario abilitare JavaScript per vederlo.


Basso

TABBED BY: Ryan Hegenauer (Questo indirizzo email è protetto dagli spambots. È necessario abilitare JavaScript per vederlo.)
----------------------------------------------------------------


Accordatura: Db Gb B E
Basso: 4 Corde


Intro di chitarra.......


quindi...


Gb-8-6-5-6-5h6p5-3-5-5--5-5-3-5-5-6-6-:II


E--7----------7~~~~~7---------------------*II
B------------------------------------------II
Gb---5-5--5-5---------5-5-5--5-------------II
Db-----------------------------6~~3-------*II
E-------3-3----------------3-3------------*II
Gb-0-0-------5-5--3-3--0--------5-5--3-3--*II


La prossima parte ha molti ritmi differenti..


Gb-3---3/7~~~~--1~~~~-3-0---7--1--3--0-1~~~-3~~~7--5~~0


sembra strano ma questo è l'ordine delle note.
 

Stellar


Chitarra

Accordatura: Standard (E A D G B E)
Chitarra: Paul Reed Smith 6 Corde


La canzone è difficilotta ma molto ripetitiva, buona fortuna.
La canzone è di tipo pulito, quindi avete bisogno di un canale pulito sull'amplificatore, distorsione e un phaser. 


-Song progression is:
Intro/verse1 (4 1/2x)
Pre-Chorus (1x)
Chorus (2x)
Post-Chorus (2x)
verse2 (4 1/2x)
Pre-chorus (1x)
Chorus (2x)
pre-breakdown (2x)
Breakdown (2x)
Chorus (2x)
pre-breakdown (1x)
Ending (1x)


_________________________________________________
 


Intro/Verse1
-Pulito
|-----------------------------------------|
|-----------------------------------------|
|-------9-/-11-11(b)--6(b)----------------|
|-----9---/-11-11(b)--6(b)-6----6-6---6/7-|
|--0----------------------------4-4-----5-|
|-----------------------------------------|

|-----------------------------------------|
|-----------------------------------------|
|-----9-/-11-11(B)--6(b)-------6-6-----6--|
|---9---/-11-11(b)--6(b)--4-4------7-7----|
|-0---------------------------------------|
|-----------------------------------------|
Pre-Chorus
-Distorsione
|------------------------------------|
|------------------------------------|
|-7-7-777-7-77-77--4-4-444-4-44-444--|
|-7-7-777-7-77-77--4-4-444-4-44-444--|
|-5-5-555-5-55-55--2-2-222-2-22-222--|
|------------------------------------|
Chorus
-Distorsione
|---00----00---------------------|
|---00----00---------------------|
|---22----22---------------------|
|2--22--2-22---------6-6-----6---|
|0--00--0-00-----4-4-----7-7-----|
|--------------------------------|

|--00----00----------------------|
|--00----00----------------------|
|--22----22----------------------|
|2-22--2-22-------6-6---6/7------|
|0-00--0-00---4-4-----5----------|
|--------------------------------|
Post chorus
-Pulito w/phaser
|-------------------------------------|
|-------------------------------------|
|------9--/11-11------------9--/6-6---|
|----9----/11-11----------9----/6-6---|
|--0--------------------0-------------|
|-------------------------------------|
Verse2
-pulito
|-----------------------------------------|
|-----------------------------------------|
|-----9-/-11-11(B)--6(b)-------6-6-----6--|
|---9---/-11-11(b)--6(b)--4-4------7-7----|
|-0---------------------------------------|
|-----------------------------------------|

|-----------------------------------------|
|-----------------------------------------|
|-------9-/-11-11(b)--6(b)----------------|
|-----9---/-11-11(b)--6(b)-6----6-6---6/7-|
|--0------------------------4-4-----5-----|
|-----------------------------------------|
Pre-Breakdown
-Distorsione
|---0----0-------------------|
|---0----0-------------------|
|---2----2-----6-------------|
|-2-2--2-2-----6--6-----6----|
|-0-0--0-0-----4--6-----6----|
|-----------------4--00-4----|
Breakdown
-pulito w/Phaser
|----------------------------------------|
|----------------------------------------|
|------------------------------------0---|
|-----0--0---------0-0-----------0---0---|
|---7------7-----7-----7-------5-----5---|
|-5----------5-5---------5---3-----3-3---|

|-------------------------------0--|
|-------------------------------0--|
|-------------------------------4--|
|-----2-2--------2-2---------5--5--|
|---2----2-----2-----2-----5----5--|
|-0--------0-0---------0-3------3--|
Ending
-Distorsione
|--------------------------------|----------------|
|--------------------------------|----------------|
|--66---------------66-----------|---Let Ring-----|
|--66--66----6/7----66--66---6/7-|--9-->----------|
|--44--66----6/7----44--66---6/7-|--7-->----------|
|------44-0--4/5--------44-0-4/5-|--5-->----------|

Song Structure:
Intro/verse1 (4 1/2x)
Pre-Chorus (1x)
Chorus (2x)
Post-Chorus (2x)
verse2 (4 1/2x)
Pre-chorus (1x)
Chorus (2x)
pre-breakdown (2x)
Breakdown (2x)
Chorus (2x)
pre-breakdown (1x)
Ending (1x)


Basso

Accordatura: Standard (B E A D G )
Basso: 5 Corde



Intro
Chitarra x3
Quindi a tempo con la grancassa
G-----------------------------------------------------------------------
D-----------------------------------------------------------------------
A-----------------------------------------------------------------------
E----5--5---9--9---5--5---9--9---5--5---9--9---5--5---9--9--------------
B-----------------------------------------------------------------------

Pre Chorus
G-----------------------------------------------
D-----------------------------------------------
A---5---5--5--5--5--2---2--2--2--2--------------
E-----------------------------------------------
B-----------------------------------------------

Chorus x2
G-----------------------------------------------------------------------
D-----------------6-6-------6-----------------6-6---6-7-----------------
A--0---0---4-4-------7-7------0---0---4-4------5------------------------
E-----------------------------------------------------------------------
B-----------------------------------------------------------------------

Bridge (Bass Fill-in)
G-----------------------------------------------------------------------
D------------------------------------------------------7>9-9------------
A---0--0-------12------12------12-------------------------7>9-9---------
E---------12------12------12------12----------12------------------------
B----------------------------------------10~----10----------------------

G----------------------------------------------------------------------
D------------------------------------------------------9>10>9----------
A---0--0-------12------12------12--------------------------------------
E---------12------12------12------12----------12-----------------------
B----------------------------------------10~-----10--------------------

Verse x4
A tempo con la grancassa
G-----------------------------------------------------------------------
D-----------------------------------------------------------------------
A--------------------------------------------11-12----------------------
E----5--5---9--9---5--5---9--9-------9----------------------------------
B-----------------------------------------------------------------------

Pre Chorus
G-----------------------------------------------
D-----------------------------------------------
A---5---5--5--5--5--2---2--2--2--2--------------
E-----------------------------------------------
B-----------------------------------------------

Chorus x3
G-----------------------------------------------------------------
D-----------------6-6-------6-----------------6-6---6-7-----------
A--0---0---4-4-------7-7------0---0---4-4------5------------------
E-----------------------------------------------------------------
B-----------------------------------------------------------------

Quiet Bit
G--------------------------------------------------------------------------------------------
D--------------------------------------------------------------------------------------------
A--------------------------------------------------------------------------------------------
E---5--5--5--3--3-3--0--0--0-0-5-5-5-5-5-5-5-5--3-3-3-0-0--0-0--5--5--5-5-5-5-5-5-5-5-5-5----
B--------------------------------------------------------------------------------------------

Outro Chorus x4
G-----------------------------------------------------------------
D-----------------6-6-------6-----------------6-6---6-7-----------
A--0---0---4-4-------7-7------0---0---4-4------5------------------
E-----------------------------------------------------------------
B-----------------------------------------------------------------

Variazione alla fine della5a ripetizionedel riff del chorus
G-----------------------------------------------------------------------------
D-----------------------------------------------------------------------------
A----------------6-6------6---------------6-6---6-7------6-6---6-7---0--
E--0---0---4-4------7-7----0---0---4-4-----5------4-4------5-----------
B-----------------------------------------------------------------------------
 

Make Yourself


Chitarra

Accordatura: Standard (E A D G B E)
Chitarra: 6 Corde Elettrica



Intro/Verse
-pulito
E|----------------------------------------
B|----------------------------------------
D|----------------------------------------
G|--9----55---55--------9--55---55--------
A|--9----55---55---5-7--9--55---55--5577--
E|--7----33-0-33---6-6--7--33-0-33--6666--

post-verse
(played After first verse)
-Distorsione
E|----------------------------
B|----------------------------
D|--7-7-7--33-33--------------
G|--7-7-7--33-33---5-5-5--55--
A|--5-5-5--11-11---5-5-5--55--
E|-----------------3-3-3--33--

Chorus
-Distorsione
E|------------------------------------------------------------
B|------------------------------------------------------------
D|--7-7-7--33-33------------------7-7-7--33-33----------------
G|--7-7-7--33-33---5-5-5--55--55--7-7-7--33-33-5-5-5--33--33--
A|--5-5-5--11-11---5-5-5--55--55--5-5-5--11-11-5-5-5--33--33--
E|-----------------3-3-3--33--33---------------3-3-3--11--11--

E|--------------------------------------------------------
B|--------------------------------------------------------
D|--7-7-7--33-33----------55-55------7-7------------------
G|--7-7-7--33-33---5-5-5--55-55------7-7-7--33-33--5-5-5--
A|--5-5-5--11-11---5-5-5--33-33------5-5-5--11-11--5-5-5--
E|-----------------3-3-3---------------------------3-3-3--

BreakDown
1st part:
-Pulito w/phaser

E|-----------------------------------------------------
B|-----------------------------------------------------
D|-----------------------------------------------------
G|--7-------9------5----------5-----7-----9---5--5577--
A|--9-------7------7----------7-----9-----7---7--7777--
E|----------------------------6------------------6666--

2nd part
-Pulito                 |Distorsione| 
E|----------------------|--------|---
B|----------------------|--------|---
G|----------------------|--------|---
D|---7----9---------5---|--5-5-5-|---
A|---9----7---------7---|--------|---
E|----------------------|--6-6-6-|---

-Distorsione
E|----------------------------------
B|----------------------------------
G|----------------------------------
D|--9-----55------55----55---5-5-5--
A|--9-----55------55----55----------
E|--7-----33---0--33--0-33---6-6-6--

Ending
-Distorsione
E|------------------------
B|------------------------
D|------------------------
G|--9----55---55----------
A|--9----55---55----5577--
E|--7----33-0-33----6666--



Song Structure:
intro/verse
post-verse
intro/verse
Chorus
1st Breakdown
2nd Breakdown
Chorus
Ending


Basso

TABBED BY: Ryan Hegenauer (Questo indirizzo email è protetto dagli spambots. È necessario abilitare JavaScript per vederlo.)
----------------------------------------------------------------


Accordatura: Db Gb B E
Basso: 4 Corde


Gb----------4-4-4-5----------------4-4-4-4-4-5--*II
Db-6-6--6-6--------------6-6---6-6--------------*II


Gb-----------4-4-4-4\-----------------II


Db-1--1-1-1/-----------6-6-6---6-6-6--II
^^first time^^


chorus
Gb-----------------4-4-4--4-4-\----------------*II
Db-1---1-1-1--1-1/--------------6-6-6----6-6-6-*II


riff a
Gb-----------------4-4-4--4-4-\----------------------------*II
Db-1---1-1-1--1-1/--------------6-6-6----6-6-6\4-4-4/6-6-6-*II


Gb-----------------4-4-4--4-4\-------------6-6--6-6-6-6-*II
Db-1---1-1-1--1-1/-------------6-6-6--6-6/--------------*II
quindi suonare il riff di nuovo

Drive


Chitarra

TABBED BY: Mike Mahon (http://members.home.com/the-anchor)
----------------------------------------------------------------


Accordatura: Standard (E A D G B E)
Chitarra: 6 Corde Elettrica e acustica


HRM - Armonico nel tasto indicato
/ - Repeat
^ - Bend


Intro
~~~~~
|------3--3-3-xx----0-0----0--0-0-xx----0--0-|
|------0--0-0-xx----3-3----0--0-0-xx----0--0-|
|------0--0-0-xx----0-0----0--0-0-xx----0--0-|
|------2--2-2-xx----2-2----2--2-2-xx----2--2-|
|----2-2--2-2-xx----2-2-3--3--3-3-xx-0-------|
|--0---0--0-0-xx-0--0-0----------------------|


Verse
~~~~~
|------3--3---xx----0------0--0---xx----0--0-|
|------0--0---xx----3------0--0---xx----0--0-|
|------0--0---xx----0------0--0---xx----0--0-|
|------2--2---xx----2------2--2---xx----2--2-|
|----2-2--2---xx----2---3--3--3---xx---------|
|------0--0---xx----0------------------------|
Adlib on the rhythm of each chord


Pre-Chorus
~~~~~~~~~~
|--0-/-/-/-/-/-/-/-/-/-/-/-/-/-/-/-/-/-/-/-/-/-/-/-/-/--|
|--0-/-/-/-/-/-/-/-/-/-/-/-/-/-/-/-/-/-/-/-/-/-/-/-/-/--|
|--0-/-/-/-/-/-/-/-/-/-/-/-/-/-/-/-/-/-/-/-/-/-/-/-/-/--| / = ripetere l'accordo
|--2-/-/-/-/-/-/-/-/-/-/-/-/-/-/-/-/-/-/-/-/-/-/-/-/-/--|
|--3-/-/-/-/-/-/-/-/-/-/-/-/-/-/-/-/-/-/-/-/-/-/-/-/-/--|
|--0-/-/-/-/-/-/-/-/-/-/-/-/-/-/-/-/-/-/-/-/-/-/-/-/-/--|
|
|--0--0--0--0-0--0-0--0-0-0--0--0--0--0-0--0-0-0--0-0-0-|
|--0--0--0--0-0--0-0--0-0-0--3--3--3--3-3--2-0-0--2-0-0-|
|--0--0--0--0-0--0-0--0-0-0--0--0--0--0-0--0-0-0--0-0-0-|
|--2--2--2--2-2--2-2--2-2-2--2--2--2--2-2--2-2-2--2-2-2-|
|--3--3--3--3-3--3-3--3-3-3--3--3--3--3-3--3-3-3--3-3-3-|
|-------------------------------------------------------|


Chorus
~~~~~~
|------3--3-3-xx----0-0----0--0-0-xx----0--0-|
|------0--0-0-xx----3-3----0--0-0-xx----0--0-|
|------0--0-0-xx----0-0----0--0-0-xx----0--0-|
|------2--2-2-xx----2-2----2--2-2-xx----2--2-|
|----2-2--2-2-xx----2-2-3--3--3-3-xx-0-------|
|--0---0--0-0-xx-0--0-0----------------------|
|
|--12--12--12--12--|
|----12--12--12----|
|------------------| Repeat throughout the Chorus
|------------------|
|------------------|
|------------------|


HRM - - - - - - -


Assolo
~~~~ |--0-0-0-0-0/--7/--5/--3--------------------------------------5/7-7--7/5--5/10--7--5--7---|
|---------------------------10/--3/--5--------5-----5-----------------------------------5-|
|--------------------------------------7^7------7^----7^----8-----------------------------|
|-----------------------------------------------------------------------------------------|
|-----------------------------------------------------------------------------------------|
|-----------------------------------------------------------------------------------------|


|-------------5----5/3-------------|
|--3/5-----------------5/3---------|
|------7^7-----------------4/2-2/4-|
|----------------------------------|
|----------------------------------|
|----------------------------------|

Basso

TABBED BY: Ryan Hegenauer (Questo indirizzo email è protetto dagli spambots. È necessario abilitare JavaScript per vederlo.)
----------------------------------------------------------------


Accordatura: Db Gb B E
Basso: 4 Corde


B--
Gb-------2-------6--6\3--*II
Db-3---3---3---3/--------*II


pre-chorus
B--1-------------------------------*II
Gb--------3---------1--------3------II
Db---------------------------------*II
 

Clean


Chitarra

Non disponibile

Basso

TABBED BY: Ryan Hegenauer (Questo indirizzo email è protetto dagli spambots. È necessario abilitare JavaScript per vederlo.)
----------------------------------------------------------------


Accordatura: Db Gb B E
Basso: 4 Corde


intro
Gb--3-5-5--x--3--5-5--:II


verse
B--------------------------3-----3-5--*II
Gb-3-5-3-5-3-5----3-5-3-5----3-5-------II
Db-------------0----------------------*II


chorus
Gb---3-5--5-5---3--3--3-3-----*II
Db------------1------------0--*II


INTERLUDE
B-----------------------4--------------
Gb-6-6-6--6-6-6--6-4-4---6-6-6--6-6-6--
Db-------------------------------------
B------------------------------4\--------------------------------------*II
Gb-6-6-6--x-6-6-6--6\4-4-4--4----2-2-2--x2-2-2--2-2\1-1--1-1\----4-4-4--II
Db-----------------------------------------------------------3-3/------*II
 

Battlestar Scralatchica


Solo Basso

TABBED BY: Ryan Hegenauer (Questo indirizzo email è protetto dagli spambots. È necessario abilitare JavaScript per vederlo.)
----------------------------------------------------------------


Accordatura: Db Gb B E
Basso: 4 Corde


E-----------------------------------------------------8-6--*II
B-----8-6-8---8-6-5-3-5-----------8-6-8----8-6-5-3-5--------II
Gb-----------------------6-4~-------------------------------II
Db-6--------6-------------------6--------6-----------------*II


E------------------------8-10--10-9-8--------------
B---------8----8-9-11-12--------------10-9-8-------
Gb-------------------------------------------8~~~~-
Db-6~~~~~~-----------------------------------------
^^^staccato^^^


Gb------------------4-4-4--------------4-------II
Db---6--6---4--6-6---------6-6--4-4--6---6-6---II


B---------5-6-8-------------------------8---8-10--II
Gb-4-5-6----------------------4-----5-7---7-------II
Db---------------6-6---4-4--6---6-6---------------II


E---------8-6~~~~~~~-II
B--6-8-6-------------II
Gb-------------------II


E--18-15--10-12-------12---15151515---12----II
B----------------------------------------13-II
Gb---------------10-------------------------II


B--12-10H12-10-----------------II
Gb-------------12-10-----------II
Db--------------------7~~~~~~~-II


1:50


B-------------------------------11-8-II
GB---------4-6-4~--8-8--5-8-5--------II
Db-6-X-4-6---------------------------II


B----------------------------11-8----II
Gb--------4-6-4~~-8-8--5-8-5---------II
Db-6-4-6-----------------------------II


E--------10---10---------------------II
B-----------9------------------------II
Gb---------------987654--6p4-----6-4-II
Db-6~~~~---------------------6p4-----II


E-------------------6-8--II
B---------------6-8------II
Gb-6--------4-6----------II
Db---6--4-6--------------II


B------------------------------11-8-II
Gb--------4---6-4--8-8--5-8-5-------II
Db-6-4-6----6-----------------------II


Gb--------4---6-4--8-8--87654-----II
Db-6--4-6---6-----------------6-4-II


B-------------------------------11-8-11-II
Gb--------4---6-4---8-8--5-8-5----------II
Db-6--4-6---6---------------------------II


E--------------------------10-------12--------13\-II
B-------------------------------------------------II
Gb--------4---6-4--6-6---8----8--10----10--11-----II
Db-6--4-6---6-------------------------------------II


B-----------------------7-6-5-------------II
Gb--------4---6-4--------------8--6-4-----II
Db-6--4-6---6-------------------------6-4-II


E--------------------10------10----II
B----------------------------------II
Gb--------4---6-4--8----8--8----8--II
Db-6--4-6---6----------------------II


LAST LINE
B-----8-6-8---8-6-5-3-5----------------II
Gb----------------------6-4------6-----II
Db-6--------6---------------4-6----66^-II
 

I Miss You


Chitarra

TABBED BY: Adam Rains (Questo indirizzo email è protetto dagli spambots. È necessario abilitare JavaScript per vederlo.)
----------------------------------------------------------------


Accordatura: D A D G B E
Chitarra: 6 Corde Elettrica


Intro (Verse is the same but palm muted except last note):
e]--------------------------]
b]--------------------------]
g]------------------------0-]
d]-----0---0--------0---0---]
a]---4---4---4----4---4-----]
d]-0------------5-----------]


Chorus:(the notes are there just get the rythm yourslef)
e]---------------------------------]
b]---------------------------------]
g]-4-4-4-4-------------------------]
d]-4-4-4-4-5-5-5-5-0-0-0-0-0-0-0-0-]
a]-2-2-2-2-5-5-5-5-0-0-0-0-0-0-0-0-]
d]---------5-5-5-5-0-0-0-0-0-0-0-0-]
I know I'll see you again Whether far or soon.


e]-----------------------------------------------------------------]
b]-----------------------------------------------------------------]
g]-4-4-4-4---------7-7-7-7-4-4-4-4---------------------------------]
d]-4-4-4-4-5-5-5-5-7-7-7-7-4-4-4-4-5-5-5-5-5-5-5-5-5-5-5-5-5-5-5-5-]
a]-2-2-2-2-5-5-5-5-5-5-5-5-2-2-2-2-5-5-5-5-5-5-5-5-5-5-5-5-5-5-5-5-]
d]---------5-5-5-5-----------------5-5-5-5-5-5-5-5-5-5-5-5-5-5-5-5-]
But I need you to know that I care and I miss you


Basso

Accordatura: D G bB Eb
Basso: 4 Corde
Tuning: (D G Bb Eb)
Guitar: 4 String Bass



Part One

G------4---------4---|
D-0---------0--------|


Part Two

G-4---0-------4---0-------4---0-----4--0--0-0--|
D---------0-----------0---------0--------------|


La canzone è molto semplice e non ha bisogno di spiegazione
 

Pardon Me



Chitarra

TABBED BY: Ryan Hegenauer (Questo indirizzo email è protetto dagli spambots. È necessario abilitare JavaScript per vederlo.)
----------------------------------------------------------------
Accordatura: D A D G B E)
Chitarra: 6 Corde Elettrica

 

All'inizio usa un phase/flange/delay*
e dopo una normale distorsione**
*
G-----------------------9-II
D-2-----7-----2-----7---7-II
A-4-----7-----4-----7---7-II
D-------7-----------7-----II
^^^^QUI TIENE LA NOTA CON LA MANO SINISTRA E ALZA IL VOLUME CON LA MANO DESTRA ^^^^^^^


...QUINDI LA DISTORSIONE... QUESTE SONO LE NOTE...
VOI IMMAGINATE IL RITMO


D-11---7---11---7--2-II
A-11---7---11---7--2-II
D-11---7---11---7--2-II


D-11---7---11---14---9---7--II
A-11---7---11---14---9---7--II
D-11---7---11---14---9---7--II


VERSE:
G------------13------7---9---9-II
D-13----13---13------7-------9-II
A-11----11---11------5-------7-II
D-------13---------------------II


^^QUESTA ^ QUESTA NOTA SONO CON L'ECO


CHORUS:
(AGAIN NO RYTHYMS TYPED)
D-11----9---7---4-2-2-4-4-2-2-/-II
A-11----9---7---4-2-2-4-4-2-2-/-II
D-11----9---7---4-2-2-4-4-2-2-/-II X2


D-11---7--9--14--II D-11---7---9--4-2-2-4-4-2-2-II
A-11---7--9--14--II A-11---7---9--4-2-2-4-4-2-2-II
D-11---7--9--14--II D-11---7---9--4-2-2-4-4-2-2-II


Basso

Accordatura: B E A D G
Basso: 5 Corde


Intro
Niente linea di basso...
Poi...
G-----------------------------------------------------------------------
D-----------------------------------------------------------------------
A-----------------------------------------------------------------------
E--9------5------9------5---\---12--------------------------------------
B-----------------------------------------------------------------------

G------------------------------------------------------------------------
D------------------------------------------------------------------------
A------------------------------------------------------------------------
E--9------5------9------5---\---12---------------------------------------
B------------------------------------------------------------------------

G------------------------------------------------------------------------
D------------------------------------------------------------------------
A------------------------------------------------------------------------
E--9------5--5--5--5--5--5--9--9--9--9--9--9--5--5--5--0--0--0-----------
B------------------------------------------------------------------------

Bridge to Verse
G-----------------------------------------------------------------------------------------
D-----------------------------------------------------------------------------------2-2-2-
A-4-4-4-4-4-4--0-0-0-4-4-4-4-4-4-0-0---4-4-4-4-4-4--0-0-0-4-4-4-4-4---------2-0-----------
E---------------------------------------------0-------------------------------------------
B-----------------------------------------------------------------------------------------

Verse
G--------------------------------------------------------------------------------
D--------------------------------------------------------------------------------
A------------6-6-6-6~4-4-2-2-----~5-5-5-5-5-5-5-5-5-5~4-4----~7-7-7-7-7-7-7-7-7--
E--4-4--0-0---------------------2-2---------------------------------44-----------
B--------------------------------------------------------------------------------

-----------------------------------------------------------
----6-7----------------------------------------------------
---------6-6-----------------------------------------------
--------------7-7--5-5-5-5-5-5-5-5-5-5-5-5-----------------
-----------------------------------------------------------

Chorus
G---------------------------------------------------------------------------------------------
B---------------------------------------------------------------------------------------------
A-4-4-4-4-4-4~2-2-0-0-0-------------------------4-4-4-4-4-4~2-2-0-0-0-------------------------
E-----------------------------0-0-2-0-0-2-0-2-------------------------------0-2-0-2-0-2-------
B---------------------------------------------------------------------------------------------

-------------------------------------------------------------------------------------------------------
------------------------------------------2-2-1--------------------------------------------------------
--4-4-4-4-4-4-0-0-0-0-0>2-2-2-2---------2-----------4-4-4-4-4-4-0-0-0-2-2-2----------------------------
----------------------------------------------------------------------------------0-0-2-0-0-2-0-2------
-------------------------------------------------------------------------------------------------------

Riff to Verse
DJ riff
G-----------------------------------------------------------------------
D-----------------------------------------------------------------------
A-----------------------------------------------------------------------
E---4-4--0-0--4-4--0-0--------------------------------------------------
B-----------------------------------------------------------------------

Verse
G---------------------------------------------------------------------------------------------------
D---------------------------------------------------------------------------------------------------
A------------6-6-6-6~4-4-2-2--------~5-5-5-5-5-5-5-5-5-5~4-4-----------~7-7-7-7-7-7-7-7-7-----------
E--4-4--0-0---------------------2-2---------------------------------44------------------------------
B---------------------------------------------------------------------------------------------------

-----------------------------------------------------------
----6-7----------------------------------------------------
---------6-6-----------------------------------------------
--------------7-7--5-5-5-5-5-5-5-5-5-5-5-5-----------------
-----------------------------------------------------------

Chorus
G---------------------------------------------------------------------------------------------
B---------------------------------------------------------------------------------------------
A-4-4-4-4-4-4~2-2-0-0-0-------------------------4-4-4-4-4-4~2-2-0-0-0-------------------------
E-----------------------------0-0-2-0-0-2-0-2-------------------------------0-2-0-2-0-2-------
B---------------------------------------------------------------------------------------------

-------------------------------------------------------------------------------------------------------
-------------------------------------------2-2-1-------------------------------------------------------
--4-4-4-4-4-4-0-0-0-0-0>2-2-2-2---------2---------4-4-4-4-4-4-0-0-0-2-2-2------------------------------
----------------------------------------------------------------------------------0-0-2-0-0-2-0-2------
-------------------------------------------------------------------------------------------------------

Le note sono suonate sulla corda B, al tempo con la batteria
G-----------------------------------------------------------------------
D-----------------------------------------------------------------------
A-----------------------------------------------------------------------
E-----------------------------------------------------------------------
B----------------------------------2--2--2-2----------------------------

G-----------------------------------------------------------------------
D-----------------------------------------------------------------------
A-----------------------------------------------------------------------
E--9------5------9------5------12---------------------------------------
B-----------------------------------------------------------------------

G-----------------------------------------------------------------------
D-----------------------------------------------------------------------
A-----------------------------------------------------------------------
E--9-9-9-9-9-9------5-5-5-5-5-5------9-9-9-9-9-9-9------5---------------
B-----------------------------------------------------------------------

Outro Chorus
G--------------------------------------------------------------------------------------------------
B--------------------------------------------------------------------------------------------------
A-4-4-4-4-4-4~2-2-0-0-0---------------------------4-4-4-4-4-4~2-2-0-0-0----------------------------
E-----------------------------0-0-2-0-0-2-0-2-------------------------------0-2-0-2-0-2------------
B--------------------------------------------------------------------------------------------------

---------------------------------------------------------------------------------------------------
----------------------------------------2-2-1------------------------------------------------------
--4-4-4-4-4-4-0-0-0-0-0>2-2-2-2---------2------4-4-4-4-4-4-0-0-2-2---------------------------------
---------------------------------------------------------------------------0-0-2-0-0-2-0-2---------
---------------------------------------------------------------------------------------------------



G------------------------------------------------------------2-2-2--------------------------------
D--4-4-4-4-4-4-0-0-0-0-4-4-4-4-4-4-0-0----4-4-4-4--------2-0----------4-4-4-4-4-4-0---------------
A-----------------------------------------------0-------------------------------------------0-----
E-------------------------------------------------------------------------------------------------
B-------------------------------------------------------------------------------------------------

Out From Under


Chitarra

TABBED BY: Ryan Hegenauer (Questo indirizzo email è protetto dagli spambots. È necessario abilitare JavaScript per vederlo.)
----------------------------------------------------------------
Accordatura: D A D G B E)
Chitarra: 6 Corde Elettrica

 

All'inizio usa un phase/flange/delay*
e dopo una normale distorsione**
*
G-----------------------9-II
D-2-----7-----2-----7---7-II
A-4-----7-----4-----7---7-II
D-------7-----------7-----II
^^^^QUI TIENE LA NOTA CON LA MANO SINISTRA E ALZA IL VOLUME CON LA MANO DESTRA ^^^^^^^


...QUINDI LA DISTORSIONE... QUESTE SONO LE NOTE...
VOI IMMAGINATE IL RITMO


D-11---7---11---7--2-II
A-11---7---11---7--2-II
D-11---7---11---7--2-II


D-11---7---11---14---9---7--II
A-11---7---11---14---9---7--II
D-11---7---11---14---9---7--II


VERSE:
G------------13------7---9---9-II
D-13----13---13------7-------9-II
A-11----11---11------5-------7-II
D-------13---------------------II


^^QUESTA ^ QUESTA NOTA SONO CON L'ECO


CHORUS:
(AGAIN NO RYTHYMS TYPED)
D-11----9---7---4-2-2-4-4-2-2-/-II
A-11----9---7---4-2-2-4-4-2-2-/-II
D-11----9---7---4-2-2-4-4-2-2-/-II X2


D-11---7--9--14--II D-11---7---9--4-2-2-4-4-2-2-II
A-11---7--9--14--II A-11---7---9--4-2-2-4-4-2-2-II
D-11---7--9--14--II D-11---7---9--4-2-2-4-4-2-2-II


Basso

Accordatura: B E A D G
Basso: 5 Corde


Intro
Niente linea di basso...
Poi...
G-----------------------------------------------------------------------
D-----------------------------------------------------------------------
A-----------------------------------------------------------------------
E--9------5------9------5---\---12--------------------------------------
B-----------------------------------------------------------------------

G------------------------------------------------------------------------
D------------------------------------------------------------------------
A------------------------------------------------------------------------
E--9------5------9------5---\---12---------------------------------------
B------------------------------------------------------------------------

G------------------------------------------------------------------------
D------------------------------------------------------------------------
A------------------------------------------------------------------------
E--9------5--5--5--5--5--5--9--9--9--9--9--9--5--5--5--0--0--0-----------
B------------------------------------------------------------------------

Bridge to Verse
G-----------------------------------------------------------------------------------------
D-----------------------------------------------------------------------------------2-2-2-
A-4-4-4-4-4-4--0-0-0-4-4-4-4-4-4-0-0---4-4-4-4-4-4--0-0-0-4-4-4-4-4---------2-0-----------
E---------------------------------------------0-------------------------------------------
B-----------------------------------------------------------------------------------------

Verse
G--------------------------------------------------------------------------------
D--------------------------------------------------------------------------------
A------------6-6-6-6~4-4-2-2-----~5-5-5-5-5-5-5-5-5-5~4-4----~7-7-7-7-7-7-7-7-7--
E--4-4--0-0---------------------2-2---------------------------------44-----------
B--------------------------------------------------------------------------------

-----------------------------------------------------------
----6-7----------------------------------------------------
---------6-6-----------------------------------------------
--------------7-7--5-5-5-5-5-5-5-5-5-5-5-5-----------------
-----------------------------------------------------------

Chorus
G---------------------------------------------------------------------------------------------
B---------------------------------------------------------------------------------------------
A-4-4-4-4-4-4~2-2-0-0-0-------------------------4-4-4-4-4-4~2-2-0-0-0-------------------------
E-----------------------------0-0-2-0-0-2-0-2-------------------------------0-2-0-2-0-2-------
B---------------------------------------------------------------------------------------------

-------------------------------------------------------------------------------------------------------
------------------------------------------2-2-1--------------------------------------------------------
--4-4-4-4-4-4-0-0-0-0-0>2-2-2-2---------2-----------4-4-4-4-4-4-0-0-0-2-2-2----------------------------
----------------------------------------------------------------------------------0-0-2-0-0-2-0-2------
-------------------------------------------------------------------------------------------------------

Riff to Verse
DJ riff
G-----------------------------------------------------------------------
D-----------------------------------------------------------------------
A-----------------------------------------------------------------------
E---4-4--0-0--4-4--0-0--------------------------------------------------
B-----------------------------------------------------------------------

Verse
G---------------------------------------------------------------------------------------------------
D---------------------------------------------------------------------------------------------------
A------------6-6-6-6~4-4-2-2--------~5-5-5-5-5-5-5-5-5-5~4-4-----------~7-7-7-7-7-7-7-7-7-----------
E--4-4--0-0---------------------2-2---------------------------------44------------------------------
B---------------------------------------------------------------------------------------------------

-----------------------------------------------------------
----6-7----------------------------------------------------
---------6-6-----------------------------------------------
--------------7-7--5-5-5-5-5-5-5-5-5-5-5-5-----------------
-----------------------------------------------------------

Chorus
G---------------------------------------------------------------------------------------------
B---------------------------------------------------------------------------------------------
A-4-4-4-4-4-4~2-2-0-0-0-------------------------4-4-4-4-4-4~2-2-0-0-0-------------------------
E-----------------------------0-0-2-0-0-2-0-2-------------------------------0-2-0-2-0-2-------
B---------------------------------------------------------------------------------------------

-------------------------------------------------------------------------------------------------------
-------------------------------------------2-2-1-------------------------------------------------------
--4-4-4-4-4-4-0-0-0-0-0>2-2-2-2---------2---------4-4-4-4-4-4-0-0-0-2-2-2------------------------------
----------------------------------------------------------------------------------0-0-2-0-0-2-0-2------
-------------------------------------------------------------------------------------------------------

Le note sono suonate sulla corda B, al tempo con la batteria
G-----------------------------------------------------------------------
D-----------------------------------------------------------------------
A-----------------------------------------------------------------------
E-----------------------------------------------------------------------
B----------------------------------2--2--2-2----------------------------

G-----------------------------------------------------------------------
D-----------------------------------------------------------------------
A-----------------------------------------------------------------------
E--9------5------9------5------12---------------------------------------
B-----------------------------------------------------------------------

G-----------------------------------------------------------------------
D-----------------------------------------------------------------------
A-----------------------------------------------------------------------
E--9-9-9-9-9-9------5-5-5-5-5-5------9-9-9-9-9-9-9------5---------------
B-----------------------------------------------------------------------

Outro Chorus
G--------------------------------------------------------------------------------------------------
B--------------------------------------------------------------------------------------------------
A-4-4-4-4-4-4~2-2-0-0-0---------------------------4-4-4-4-4-4~2-2-0-0-0----------------------------
E-----------------------------0-0-2-0-0-2-0-2-------------------------------0-2-0-2-0-2------------
B--------------------------------------------------------------------------------------------------

---------------------------------------------------------------------------------------------------
----------------------------------------2-2-1------------------------------------------------------
--4-4-4-4-4-4-0-0-0-0-0>2-2-2-2---------2------4-4-4-4-4-4-0-0-2-2---------------------------------
---------------------------------------------------------------------------0-0-2-0-0-2-0-2---------
---------------------------------------------------------------------------------------------------



G------------------------------------------------------------2-2-2--------------------------------
D--4-4-4-4-4-4-0-0-0-0-4-4-4-4-4-4-0-0----4-4-4-4--------2-0----------4-4-4-4-4-4-0---------------
A-----------------------------------------------0-------------------------------------------0-----
E-------------------------------------------------------------------------------------------------
B-------------------------------------------------------------------------------------------------
 

Cerca nel sito

Segui Incubus Italia

Segui la Band

Seguici su Twitter

JSN Epic template designed by JoomlaShine.com