Quicksand



non disponibile

 

A Kiss To Send Us Off



Intro/Bridge

|------------------------------|

|------------------------------|

|-11----0---11----0---11---12--|

|-12---12---12---12---12---12--|

|------10--------10------------|

|------------------------------|

1 4 4 3 1 3

(# of times to play note)



Chorus

|-----------------|---------------------|

|-----------------|---------------------|

|-----------------|-5-5-5-5-5-x-x-8-8-8-|

|-5-5-/-8-\-2-2-2-|-5-5-5-5-5-x-x-8-8-8-|

|-5-5-/-8-\-2-2-2-|-3-3-3-3-3-x-x-6-6-6-|

|-3-3-/-6-\-0-0-0-|---------------------|



Verse

|----------------------------|

|----------------------------|

|-0---0---0---0---0---0---0--|

|-12--13--12--10--12\-1---3--|

|----------------------------|

|----------------------------|

8 4 1 1 1 13 3



|-----------------------------------|

|-----------------------------------|

|-0---0---0---0---0---0--0-0-0-0-0--|

|-12--13--12--10--12\-1--7-7-7b8r7--|

|-----------------------------------|

|-----------------------------------|

8 4 1 1 1 8



|-----------------|---------------------|

|-----------------|---------------------|

|-----------------|-5-5-5-5-5-x-x-8-8-8-|

|-5-5-/-8-\-2-2-2-|-5-5-5-5-5-x-x-8-8-8-|

|-5-5-/-8-\-2-2-2-|-3-3-3-3-3-x-x-6-6-6-|

|-3-3-/-6-\-0-0-0-|---------------------|



|----------------------------|

|----------------------------|

|-0---0---0---0---0---0---0--|

|-12--13--12--10--12\-1---3--|

|----------------------------|

|----------------------------|

8 4 1 1 1 13 3



|-----------------------------------|

|-----------------------------------|

|-0---0---0---0---0---0--0----------|

|-12--13--12--10--12\-1--7-7-7b8r7--|

|-----------------------------------|

|-----------------------------------|

8 4 1 1 1 8



|-----------------|---------------------|

|-----------------|---------------------|

|-----------------|-5-5-5-5-5-x-x-8-8-8-|

|-5-5-/-8-\-2-2-2-|-5-5-5-5-5-x-x-8-8-8-|

|-5-5-/-8-\-2-2-2-|-3-3-3-3-3-x-x-6-6-6-|

|-3-3-/-6-\-0-0-0-|---------------------|



|-----------------|---------------------|

|-----------------|---------------------|

|-----------------|-5-5-5-5-5-x-x-8-8-8-|

|-5-5-/-8-\-2-2-2-|-5-5-5-5-5-x-x-8-8-8-|

|-5-5-/-8-\-2-2-2-|-3-3-3-3-3-x-x-6-6-6-|

|-3-3-/-6-\-0-0-0-|---------------------|



Breakdown



|------------------------------|

|------------------------------|

|-11----0---11----0---11---12--|

|-12---12---12---12---12---12--|

|------10--------10------------|

|------------------------------|

| (2nd guitar

|----------------| comes in)

|----------------|

|----------------|

|-4---0---4---5--| play to match gtr 1

|-5---5---5---5--| repeat as necessary

|-3---3---3---3--|



|-----------------|---------------------|

|-----------------|---------------------|

|-----------------|-5-5-5-5-5-x-x-8-8-8-|

|-5-5-/-8-\-2-2-2-|-5-5-5-5-5-x-x-8-8-8-|

|-5-5-/-8-\-2-2-2-|-3-3-3-3-3-x-x-6-6-6-|

|-3-3-/-6-\-0-0-0-|---------------------|
 

Dig



Intro: [delay/light distortion]



e|---------16-----------------16-----------------16--------------------16-----|

b|----16------16---16----16------16---16----14------14----14-----14-------14--|

G|----------------------------------------------------------------------------|

D|-14---14------14-----14--14------14----16---16------16----------------------|

A|------------------------------------------------------------16----16--------|

E|----------------------------------------------------------------------------|



Also plays this in there... listen carefully



-------18p16-----|

---14--------14--|

-----------------|

-----------------|

-16--16----------|

-----------------|



Verse:

Chords



Emaj F#maj C#min

-0-- -2-- -4--|

-0-- -2-- -5--|

-1-- -3-- -6--|

-2-- -4-- -6--|

-2-- -4-- -4--|

-0-- -2-- ----|



We all have a weakness

But some of ours are easier to identify. Look me in the eye

& ask for forgiveness;

we'll make a pact to never speak that word again.

Yes, you are my friend.

We all have something that digs us,

at least we dig each other.

So when weakness turns my ego up

I know you'll count on the me from yesterday.





Chorus:

Lead guitar

e|------------------------------------------------/11---------11------9-9h11-11--|

b|----11--------11-------11---11-11-----11---11----------------------------------|

g|-13-----13-13--------8----8-------8--------------------------------------------|

D|-------------------------------------------------------9-------9---------------|

A|---------------------------------------------------------11--------------------|

E|-------------------------------------------------------------------------------|



------------------------------------------9--------------------------------------|

----11--------11-------11---11-11------------------------------------------------|

-13-----13-13--------8----8-------8----------11----11----------------------------|

--------------------------------------11-----------11----------------------------|

---------------------------------------------------9---11-11-11\-9-9-9-9---------|

---------------------------------------------------------------------------------|



----------------------------------------------------12---12-11---9---------------|

----11--------11-------11---11-11-----11~~~~11--12-------------------------------|

-13-----13-13--------8----8-------8--------------------9-------9-----------------|

---------------------------------------------------------------------------------|

---------------------------------------------------------------------------------|

---------------------------------------------------------------------------------|



-----------------------------------------14------14------14~~~~------------------|

------11--------11-----11---11-11-----12-----12-----12---12~~~~------------------|

-13-----13-13--------8----8-------8----------------------11~~~~------------------|

---------------------------------------------------------------------------------|

---------------------------------------------------------------------------------|

---------------------------------------------------------------------------------|



Chords: (play in order)



Emaj Bmaj F#maj C#min Emaj Bmaj Emaj F#maj

-0-- -2-- -2-- -4-- -0-- -2-- -0-- -2--

-0-- -4-- -2-- -5-- -0-- -4-- -0-- -2--

-1-- -4-- -3-- -6-- -1-- -4-- -1-- -3--

-2-- -4-- -4-- -6-- -2-- -4-- -2-- -4--

-2-- -2-- -4-- -4-- -2-- -2-- -2-- -4--

-0-- ---- -2-- ---- -0-- ---- -0-- -2--



If I turn into another

dig me up from under what is covering

the better part of me.

Sing this song

remind me that we'll always have each other

when everything else is gone.





Verse:

We all have a sickness

that cleverly attaches & multiplies

No matter how we try.

We all have someone that digs at us,

at least we dig each other.

So when sickness turns my ego up

I know you'll act as a clever medicine.





Chorus:

If I turn into another

dig me up from under what is covering

The better part of me.

Sing this song!

Remind me that we'll always have each other

when everything else is gone.

OK, each other when everything else is gone.

 

Anna Molly



Standard Tuning



* = pinch harm.



Gtr I (fast strumming pattern)

Intro/Chorus

|--8----6----4------------------8---6----4----1----3-|

|--8----8----4------------------8---8----4----1----3-|

|--8----8----5---8/-10-10-10----8---8----5----1----4-|

|-10----8----6---8/-10-10-10---10---8----6----3----3-|

|-10----6----6---6/--8--8--8---10---6----6----3----5-|

|--8---------4------------------8--------4----1----3-|



Gtr II (keyboard tabbed for gtr)

TP TP TP TP TP TP TP

|------------------------------------|

|---8----11--8----11--8-----11--8----|

|------------------------------------|

|------------------------------------|2nd time

|------------------------------------|

|------------------------------------|



Prechorus

|-----------------------------------|

|-----------------------------------|

|--8--8--8--8--8\-7-----------------|

|-10-10-10-10-10\-8---8--8--8--8\-5-|

|--------------------10-10-10-10\-6-|

|-----------------------------------|



|--------------------------------------|

|--------------------------------------|

|--8--8--8--8--8--8--------------------|

|-10-10-10--8--8--8---8--8--8\-5--5-5--|

|--------------------10-10-10\-6--6-6--|

|--------------------------------------|



Verse * *

|-----------------10---10-------8\-|

|---------11---------8-------------|

|----8-------8---------------------|

|-10---10------10----------6-6-----|

|----------------------------------|

|----------------------------------|

{------------PM-------------}

* *

|-----------------10---10------10\-|

|---------11---------8-------------|

|----8-------8---------------------|

|-10---10------10------------------|

|-------------------------10-10----|

|----------------------------------|

{------------PM-------------}



|--8----6----4------------------8---6----4----1----3-|

|--8----8----4------------------8---8----4----1----3-|

|--8----8----5---8/-10-10-10----8---8----5----1----4-|

|-10----8----6---8/-10-10-10---10---8----6----3----3-|

|-10----6----6---6/--8--8--8---10---6----6----3----5-|

|--8---------4------------------8--------4----1----3-|



|-----------------------------------|

|-----------------------------------|

|--8--8--8--8--8\-7-----------------|

|-10-10-10-10-10\-8---8--8--8--8\-5-|

|--------------------10-10-10-10\-6-|

|-----------------------------------|



|--------------------------------------|

|--------------------------------------|

|--8--8--8--8--8--8--------------------|

|-10-10-10--8--8--8---8--8--8\-5--5-5--|

|--------------------10-10-10\-6--6-6--|

|--------------------------------------|

* *

|-----------------10---10-------8\-|

|---------11---------8-------------|

|----8-------8---------------------|

|-10---10------10----------6-6-----|

|----------------------------------|

|----------------------------------|

{------------PM-------------} play 2nd time

* *

|-----------------10---10------10\-|

|---------11---------8-------------|

|----8-------8---------------------|

|-10---10------10------------------|

|-------------------------10-10----|

|----------------------------------|

{------------PM-------------}



Bridge

|------------------------------------------------------|

|------------------------------------------------------|

|-------------------------x-x-5--5b7-5--5b7r3h5--5b7-5~|

|------------------------------------------------------|

|------------------------------------------------------|

|-4--x6\--3--x3--4-x6\--3------------------------------|



Breakdown

|------------------------------------|

|-------------------------------9--9-|

|------------------------------10-10-|

|----------5-5-----------5-x-x-10-10-|

|----------6-6-----------6-x-x-8--8--|

|-8-6-6-8-------8-6-6-8--------------|



|----------------------------|

|---------------------9--9---|

|--------------------10-10---|

|----------5-5-------10-10---|

|----------6-6--3/5---8--8---|

|-8-6-6-8-------4/6----------|



|--8----6----4------------------8---6----4----1----3-|

|--8----8----4------------------8---8----4----1----3-|

|--8----8----5---8/-10-10-10----8---8----5----1----4-|

|-10----8----6---8/-10-10-10---10---8----6----3----3-|

|-10----6----6---6/--8--8--8---10---6----6----3----5-|

|--8---------4------------------8--------4----1----3-|



|-----------------------------------|

|-----------------------------------|

|--8--8--8--8--8\-7-----------------|

|-10-10-10-10-10\-8---8--8--8--8\-5-|

|--------------------10-10-10-10\-6-|

|-----------------------------------|



|--------------------------------------|

|--------------------------------------|

|--8--8--8--8--8--8--------------------|

|-10-10-10--8--8--8---8--8--8\-5--5-5--|

|--------------------10-10-10\-6--6-6--|

|--------------------------------------|


 

Love Hurts


Guitar 1 - Lightly Distorted - Standard Tuning

Guitar 2 - Acoustic - Standard Tuning

Guitar 3 - Distorted w/Heavy Chorus - Standard Tuning

Guitar 4 - Synth (Flutes) - Standard Tuning

Guitar 5 - Distorted (Solo) - Standard Tuning

Guitar 6 - Clean - Standard Tuning

Guitar 7 - Distorted w/Chorus and Heavy Reverb - Standard Tuning



Key to tab symbols

------------------

/ Slide up

\ Slide down

b Bend (Bend number of steps indicated above)

r Release

{5b} Prebend (Bend number of steps indicated above)

[5] Tied note



INTRO

Gtr. 1

|-E|---7---7-----10--|-----------------|---7---7-----10--|-5---------------|

| B|-----0-----7---10|-7---7-8-5---5-7-|-----0-----7---10|-5---5-----------|

| G|-9---0---7-------|-7-7-----5-5-----|-9---0---7-------|-6---6--/9---9---|

| D|---------9-------|-7-------7-------|---------9-------|-7-7---7/1010--10|

| A|-----------------|-----------------|-----------------|-----------------|

| E|-----------------|-----------------|-----------------|-----------------|

|

| Gtr. 2

| E|-----------------|-----------------|-0---0-0-2---2-22|-0---0-0-0---0-00|

| B|-----------------|-----------------|-0---0-0-3---3-33|-2---2-2-1---1-11|

| G|-----------------|-----------------|-0---0-0-4---4-44|-2---2-2-0---0-00|

| D|-----------------|-----------------|-2---2-2-4---4-44|-2---2-2-2---2-22|

| A|-----------------|-----------------|-2---2-2-2---2-22|-0---0-0-3---3-33|

|-E|-----------------|-----------------|-0---0-0---------|-----------------|





|-E|---7---7-----10--|-----------------|---7---7-----10--|-5---------------|

| B|-----0-----7---10|-7---7-8-5---5-7-|-----0-----7---10|-5---5-----------|

| G|-9---0---7-------|-7-7-----5-5-----|-9---0---7-------|-6---6--/9---9---|

| D|---------9-------|-7-------7-------|---------9-------|-7-7---7/1010--10|

| A|-----------------|-----------------|-----------------|-----------------|

| E|-----------------|-----------------|-----------------|-----------------|

|

| E|-0---0-0-2---2-22|-2---2-2-0---0-00|-0---0-0-2---2-22|-0---0-0-0---0-00|

| B|-0---0-0-3---3-33|-3---3-3-1---1-11|-0---0-0-3---3-33|-2---2-2-1---1-11|

| G|-0---0-0-4---4-44|-2---2-2-2---2-22|-0---0-0-4---4-44|-2---2-2-0---0-00|

| D|-2---2-2-4---4-44|-0---0-0-2---2-22|-2---2-2-4---4-44|-2---2-2-2---2-22|

| A|-2---2-2-2---2-22|---------0---0-00|-2---2-2-2---2-22|-0---0-0-3---3-33|

|-E|-0---0-0---------|-----------------|-0---0-0---------|-----------------|





VERSES

% (Segno)

Gtr. 3

1. "Tonight we drink to youth ..."

2. "Fettered and abused ..."

|-E|---7---7-----10--|-----------------|---7---------10--|-----------------|

| B|-----8-----7---10|-7---7-8-5---5-7-|-----8-----7---10|-7---7-8-5---5-7-|

| G|-9-------7-------|---7-------5-----|-9-----9-7-------|---7-------5-----|

| D|-----------------|-----------------|-----------------|-----------------|

| A|-----------------|-----------------|-----------------|-----------------|

| E|-----------------|-----------------|-----------------|-----------------|

|

| Gtr. 2

| E|-0---0-0-2---2-22|-2---2-2-0---0-00|-0---0-0-2---2-22|-2---2-2-0---0-00|

| B|-0---0-0-3---3-33|-3---3-3-1---1-11|-0---0-0-3---3-33|-3---3-3-1---1-11|

| G|-0---0-0-4---4-44|-2---2-2-2---2-22|-0---0-0-4---4-44|-2---2-2-2---2-22|

| D|-2---2-2-4---4-44|-0---0-0-2---2-22|-2---2-2-4---4-44|-0---0-0-2---2-22|

| A|-2---2-2-2---2-22|---------0---0-00|-2---2-2-2---2-22|---------0---0-00|

|-E|-0---0-0---------|-----------------|-0---0-0---------|-----------------|





Gtr. 7

1. "My heart still has a beat ..."

2. "I only want the truth ..." 1 (Gradual Bend)

|-E|-----------------|-----------------|-----------------|-----------------|

| B|-----------------|-------------15b-|[15b]------------|[15b]------------|

| G|-----------------|-----------------|-----------------|-----------------| On D.S.

| D|-----------------|-----------------|-----------------|-----------------| Only

| A|-----------------|-----------------|-----------------|-----------------|

| E|-----------------|-----------------|-----------------|-----------------|

|

| Gtr. 3

| E|---7---7-----10--|-----------------|---7---------10--|-----------------|

| B|-----8-----7---10|-7---7-8-5---5-7-|-----8-----7---10|-7---7-8-5---5-7-|

| G|-9-------7-------|---7-------5-----|-9-----9-7-------|---7-------5-----|

| D|-----------------|-----------------|-----------------|-----------------|

| A|-----------------|-----------------|-----------------|-----------------|

| E|-----------------|-----------------|-----------------|-----------------|

|

| Gtr. 1

| E|---7---7-----10--|-----------------|---7---7-----10--|-----------------|

| B|-----0-----7---10|-7---7-8-5---5-7-|-----0-----7---10|-7---7-8-5---5-7-|

| G|-9---0---7-------|-7-7-----5-5-----|-9---0---7-------|-7-7-----5-5-----|

| D|---------9-------|-7-------7-------|---------9-------|-7-------7-------|

| A|-----------------|-----------------|-----------------|-----------------|

| E|-----------------|-----------------|-----------------|-----------------|

|

| Gtr. 2

| E|-0---0-0-2---2-22|-2---2-2-0---0-00|-0---0-0-2---2-22|-2---2-2-0---0-00|

| B|-0---0-0-3---3-33|-3---3-3-1---1-11|-0---0-0-3---3-33|-3---3-3-1---1-11|

| G|-0---0-0-4---4-44|-2---2-2-2---2-22|-0---0-0-4---4-44|-2---2-2-2---2-22|

| D|-2---2-2-4---4-44|-0---0-0-2---2-22|-2---2-2-4---4-44|-0---0-0-2---2-22|

| A|-2---2-2-2---2-22|---------0---0-00|-2---2-2-2---2-22|---------0---0-00|

|-E|-0---0-0---------|-----------------|-0---0-0---------|-----------------|





PRECHORUS

Gtr. 1

1. & 2. "Sometimes when I'm alone I wonder ..."

|-E|-5-5-5-5-5-5-5-5-5-5-5-5-5-5-5-5-|-8-8-8-8-8-8-8-8-8-8-8-8-8-8-8-8\|

| B|-5-5-5-5-5-5-5-5-5-5-5-5-5-5-5-5-|-8-8-8-8-8-8-8-8-8-8-8-8-8-8-8-8\|

| G|-5-5-5-5-5-5-5-5-5-5-5-5-5-5-5-5-|-9-9-9-9-9-9-9-9-9-9-9-9-9-9-9-9\|

| D|---------------------------------|---------------------------------|

| A|---------------------------------|---------------------------------|

| E|---------------------------------|---------------------------------|

|

| Gtr. 2

| E|-0---0-0-0---0-0-0---0-0-0---0-0-|-0---0-0-0---0-0-0---0-0-0---0-0-|

| B|-1---1-1-1---1-1-1---1-1-1---1-1-|-1---1-1-1---1-1-1---1-1-1---1-1-|

| G|-2---2-2-2---2-2-2---2-2-2---2-2-|-0---0-0-0---0-0-0---0-0-0---0-0-|

| D|-2---2-2-2---2-2-2---2-2-2---2-2-|-2---2-2-2---2-2-2---2-2-2---2-2-|

| A|-0---0-0-0---0-0-0---0-0-0---0-0-|-3---3-3-3---3-3-3---3-3-3---3-3-|

|-E|---------------------------------|---------------------------------|





1. & 2. "Keeping me from seeing ..."

|-E|-5-5-5-5-5-5-5-5-5-5-5-5-5-5-5-5-|-8-8-8-8-8-8-8-8-8-10101010101010|

| B|-5-5-5-5-5-5-5-5-5-5-5-5-5-5-5-5-|-8-8-8-8-8-8-8-8-8-10101010101010|

| G|-5-5-5-5-5-5-5-5-5-5-5-5-5-5-5-5-|-9-9-9-9-9-9-9-9-9-11111111111111|

| D|---------------------------------|---------------------------------|

| A|---------------------------------|---------------------------------|

| E|---------------------------------|---------------------------------|

|

| E|-0---0-0-0---0-0-0---0-0-0---0-0-|-0---0-0-0---0-0-0---2-2-2---2-2-|

| B|-1---1-1-1---1-1-1---1-1-1---1-1-|-1---1-1-1---1-1-1---3-3-3---3-3-|

| G|-2---2-2-2---2-2-2---2-2-2---2-2-|-0---0-0-0---0-0-0---2-2-2---2-2-|

| D|-2---2-2-2---2-2-2---2-2-2---2-2-|-2---2-2-2---2-2-2---0-0-0---0-0-|

| A|-0---0-0-0---0-0-0---0-0-0---0-0-|-3---3-3-3---3-3-3---------------|

|-E|---------------------------------|---------------------------------|





REFRAIN

Gtr. 7 (2nd Time on D.S.) To Coda

A. "Love hurts ..."

B. "Love sings ..." 1 (Gradual Bend)

|-E||-[17b]------------|-----------------|-----------------|--------------17b-||

| B||------------------|-----------------|-----------------|------------------||

| G||o-----------------|-----------------|-----------------|-----------------o|| On D.S.

| D||o-----------------|-----------------|-----------------|-----------------o|| Only

| A||------------------|-----------------|-----------------|------------------||

| E||------------------|-----------------|-----------------|------------------||

|

| Gtr. 1

| E||----7---7-----10--|-----------------|---7---7-----10--|-5----------------||

| B||------0-----7---10|-7---7-8-5---5-7-|-----0-----7---10|-5---5------------||

| G||o-9---0---7-------|-7-7-----5-5-----|-9---0---7-------|-6---6--/9---9---o||

| D||o---------9-------|-7-------7-------|---------9-------|-7-7---7/1010--10o||

| A||------------------|-----------------|-----------------|------------------||

| E||------------------|-----------------|-----------------|------------------||

|

| Gtr. 2

| E||--0---0-0-2---2-22|-2---2-2-0---0-00|-0---0-0-2---2-22|-0---0-0-0---0-00-||

| B||--0---0-0-3---3-33|-3---3-3-1---1-11|-0---0-0-3---3-33|-2---2-2-1---1-11-||

| G||o-0---0-0-4---4-44|-2---2-2-2---2-22|-0---0-0-4---4-44|-2---2-2-0---0-00o||

| D||o-2---2-2-4---4-44|-0---0-0-2---2-22|-2---2-2-4---4-44|-2---2-2-2---2-22o||

| A||--2---2-2-2---2-22|---------0---0-00|-2---2-2-2---2-22|-0---0-0-3---3-33-||

|-E||--0---0-0---------|-----------------|-0---0-0---------|------------------||





INTERLUDE

Gtr. 4 D.S. al Coda

|-E|-----------------|-----15--17--19--|

| B|-------------15--|-17--------------|

| G|-----14--16------|-----------------|

| D|-17--------------|-----------------|

| A|-----------------|-----------------|

| E|-----------------|-----------------|

|

| Gtr. 2

| E|-0---0-0-0---0-0-|-0---0-0-0---0-0-|

| B|-0---0-0-0---0-0-|-0---0-0-0---0-0-|

| G|-0---0-0-0---0-0-|-0---0-0-0---0-0-|

| D|-2---2-2-2---2-2-|-2---2-2-2---2-2-|

| A|-2---2-2-2---2-2-|-2---2-2-2---2-2-|

|-E|-0---0-0-0---0-0-|-0---0-0-0---0-0-|





GUITAR SOLO

Coda

Gtr. 5 (Solo) 1

|-E|---------------------------------||---------------------------------|---------------------------------|

| B|---------------------------------||------------------15--15----15/17|-17151715----1715171517----------|

| G|-----------------------------x-x-||-14b-----16-----16--16-----------|-----------------------------16--|

| D|---------------------------------||---------------------------------|-----------------------17--------|

| A|---------------------------------||---------------------------------|---------------------------------|

| E|---------------------------------||---------------------------------|---------------------------------|

|

| Gtr. 1

| E|-5-------------------------------||-----7-------7-----------10------|---------------------------------|

| B|-5-------5-----------------------||---------0-----------7-------10--|-7-------7---8---5-------5---7---|

| G|-6-------6------/9-------9-------||-9-------0-------7---------------|-7---7-----------5---5-----------|

| D|-7---7-------7--/10--10------10--||-----------------9---------------|-7---------------7---------------|

| A|---------------------------------||---------------------------------|---------------------------------|

| E|---------------------------------||---------------------------------|---------------------------------|

|

| Gtr. 2

| E|-0-------0---0---0-------0---0-0-||-0-------0---0---2-------2---2-2-|-2-------2---2---0-------0---0-0-|

| B|-2-------2---2---1-------1---1-1-||-0-------0---0---3-------3---3-3-|-3-------3---3---1-------1---1-1-|

| G|-2-------2---2---0-------0---0-0-||-0-------0---0---4-------4---4-4-|-2-------2---2---2-------2---2-2-|

| D|-2-------2---2---2-------2---2-2-||-2-------2---2---4-------4---4-4-|-0-------0---0---2-------2---2-2-|

| A|-0-------0---0---3-------3---3-3-||-2-------2---2---2-------2---2-2-|-----------------0-------0---0-0-|

|-E|---------------------------------||-0-------0---0-------------------|---------------------------------|



1

|-E|---------------------------------|-----------------15--------------|

| B|------------------15--15----15/17|-17151715----1715--1515----------|

| G|-14b-----16-----16--16-----------|---------------------------------|

| D|---------------------------------|-----------------------17----17\-|

| A|---------------------------------|---------------------------------|

| E|---------------------------------|---------------------------------|

|

| E|-----7-------7-----------10------|---------------------------------|

| B|---------0-----------7-------10--|-7-------7---8---5-------5---7---|

| G|-9-------0-------7---------------|-7---7-----------5---5-----------|

| D|-----------------9---------------|-7---------------7---------------|

| A|---------------------------------|---------------------------------|

| E|---------------------------------|---------------------------------|

|

| E|-0-------0---0---2-------2---2-2-|-2-------2---2---0-------0---0-0-|

| B|-0-------0---0---3-------3---3-3-|-3-------3---3---1-------1---1-1-|

| G|-0-------0---0---4-------4---4-4-|-2-------2---2---2-------2---2-2-|

| D|-2-------2---2---4-------4---4-4-|-0-------0---0---2-------2---2-2-|

| A|-2-------2---2---2-------2---2-2-|-----------------0-------0---0-0-|

|-E|-0-------0---0-------------------|---------------------------------|



Gtr. 5

|-E|---------------------------------|---------------------------------|

| B|---------------------------------|---------------------------------|

| G|-7-9---------------------9--\7-7-|/12------9---------------9--\7-7-|

| D|---------------------------------|---------------------------------|

| A|---------------------------------|---------------------------------|

| E|---------------------------------|---------------------------------|

|

| Gtr. 6

| E|---------------------------------|---------------------------------|

| B|---------------------------8-----|---------------------------8-----|

| G|-7-9---7-9---7-9---7-9-7-9---7-7-|-7-9---7-9---7-9---7-9-7-9---7-7-|

| D|---------------------------------|---------------------------------|

| A|---------------------------------|---------------------------------|

| E|---------------------------------|---------------------------------|

|

| Gtr. 2

| E|-0---0-0-0---0-0-0---0-0-0---0-0-|-0---0-0-0---0-0-0---0-0-0---0-0-|

| B|-1---1-1-1---1-1-1---1-1-1---1-1-|-1---1-1-1---1-1-1---1-1-1---1-1-|

| G|-2---2-2-2---2-2-2---2-2-2---2-2-|-0---0-0-0---0-0-0---0-0-0---0-0-|

| D|-2---2-2-2---2-2-2---2-2-2---2-2-|-2---2-2-2---2-2-2---2-2-2---2-2-|

| A|-0---0-0-0---0-0-0---0-0-0---0-0-|-3---3-3-3---3-3-3---3-3-3---3-3-|

|-E|---------------------------------|---------------------------------|





|-E|---------------------------------|---------------------------------|

| B|---------------------------------|---------------------------12----|

| G|/12-----\4-------------------4/7-|[7]----------7/9-------12--------|

| D|---------------------------------|---------------------------------|

| A|---------------------------------|---------------------------------|

| E|---------------------------------|---------------------------------|

|

| E|---------------------------------|---------------------------------|

| B|---------------------------8-----|---------------------------8-----|

| G|-7-9---7-9---7-9---7-9-7-9---7-7-|-7-9---7-9---7-9---7-9-7-9---7-7-|

| D|---------------------------------|---------------------------------|

| A|---------------------------------|---------------------------------|

| E|---------------------------------|---------------------------------|

|

| E|-0---0-0-0---0-0-0---0-0-0---0-0-|-0---0-0-0---0-0-0---0-0-0---0-0-|

| B|-1---1-1-1---1-1-1---1-1-1---1-1-|-1---1-1-1---1-1-1---1-1-1---1-1-|

| G|-2---2-2-2---2-2-2---2-2-2---2-2-|-0---0-0-0---0-0-0---0-0-0---0-0-|

| D|-2---2-2-2---2-2-2---2-2-2---2-2-|-2---2-2-2---2-2-2---2-2-2---2-2-|

| A|-0---0-0-0---0-0-0---0-0-0---0-0-|-3---3-3-3---3-3-3---3-3-3---3-3-|

|-E|---------------------------------|---------------------------------|





INTERLUDE

Gtr. 4

"Love hurts ..."

|-E|-----------------|-----5-----------|

| B|-8-------7-------|[7]------5-------|

| G|-9-------7-------|[7]-[7]--5-------|

| D|-----------------|-----------------|

| A|-----------------|-----------------|

| E|-----------------|-----------------|

|

| Gtr. 2

| E|-0---0-002---2-22|-2---2-220---0-00|

| B|-0---0-003---3-33|-3---3-331---1-11|

| G|-0---0-004---4-44|-2---2-222---2-22|

| D|-2---2-224---4-44|-0---0-002---2-22|

| A|-2---2-222---2-22|---------0---0-00|

|-E|-0---0-00--------|-----------------|





Gtr. 5

" And it feels like ... " 1

|-E|---------------------------------|---------------------------------|

| B|---------------------------------|------------------{15b}r-12--15--|

| G|---------------------------------|---------------------------14----|

| D|---------------------------------|---------------------------------|

| A|---------------------------------|---------------------------------|

| E|---------------------------------|---------------------------------|

|

| Gtr. 4

| E|---------3-----------------------|---------------------------------|

| B|-5---------------7---------------|-5---------------5---------------|

| G|-4------[4]------7---------------|-6---------------5---------------|

| D|---------------------------------|---------------------------------|

| A|---------------------------------|---------------------------------|

| E|---------------------------------|---------------------------------|

|

| Gtr. 2

| E|-0-------0---0---2-------2---2-2-|-0-------0---0---0-------0---0-0-|

| B|-0-------0---0---3-------3---3-3-|-2-------2---2---1-------1---1-1-|

| G|-0-------0---0---4-------4---4-4-|-2-------2---2---0-------0---0-0-|

| D|-2-------2---2---4-------4---4-4-|-2-------2---2---2-------2---2-2-|

| A|-2-------2---2---2-------2---2-2-|-0-------0---0---3-------3---3-3-|

|-E|-0-------0---0-------------------|---------------------------------|



REFRAIN

Gtr. 7

A. "Love hurts ..."

B. "Love sings ..." 1 (Gradual Bend)

|-E||------------------|-----------------|-----------------|--------------22b-||

| B||------------------|-----------------|-----------------|------------------||

| G||o-----------------|-----------------|-----------------|-----------------o|| On Repeat

| D||o-----------------|-----------------|-----------------|-----------------o|| Only

| A||------------------|-----------------|-----------------|------------------||

| E||------------------|-----------------|-----------------|------------------||

|

| Gtr. 1

| E||----7---7-----10--|-----------------|---7---7-----10--|-5----------------||

| B||------0-----7---10|-7---7-8-5---5-7-|-----0-----7---10|-5---5------------||

| G||o-9---0---7-------|-7-7-----5-5-----|-9---0---7-------|-6---6--/9---9---o||

| D||o---------9-------|-7-------7-------|---------9-------|-7-7---7/1010--10o||

| A||------------------|-----------------|-----------------|------------------||

| E||------------------|-----------------|-----------------|------------------||

|

| Gtr. 2

| E||--0---0-0-2---2-22|-2---2-2-0---0-00|-0---0-0-2---2-22|-0---0-0-0---0-00-||

| B||--0---0-0-3---3-33|-3---3-3-1---1-11|-0---0-0-3---3-33|-2---2-2-1---1-11-||

| G||o-0---0-0-4---4-44|-2---2-2-2---2-22|-0---0-0-4---4-44|-2---2-2-0---0-00o||

| D||o-2---2-2-4---4-44|-0---0-0-2---2-22|-2---2-2-4---4-44|-2---2-2-2---2-22o||

| A||--2---2-2-2---2-22|---------0---0-00|-2---2-2-2---2-22|-0---0-0-3---3-33-||

|-E||--0---0-0---------|-----------------|-0---0-0---------|------------------||



OUTRO REFRAIN

"Love hurts ..." 1 (Gradual Bend)

|-E|[22b]------------|-----------------|-----------------|-------------17b-|

| B|-----------------|-----------------|-----------------|-----------------|

| G|-----------------|-----------------|-----------------|-----------------|

| D|-----------------|-----------------|-----------------|-----------------|

| A|-----------------|-----------------|-----------------|-----------------|

| E|-----------------|-----------------|-----------------|-----------------|

|

| E|---7---7-----10--|-----------------|---7---7-----10--|-5---------------|

| B|-----0-----7---10|-7---7-8-5---5-7-|-----0-----7---10|-5---5-----------|

| G|-9---0---7-------|-7-7-----5-5-----|-9---0---7-------|-6---6--/9---9---|

| D|---------9-------|-7-------7-------|---------9-------|-7-7---7/1010--10|

| A|-----------------|-----------------|-----------------|-----------------|

| E|-----------------|-----------------|-----------------|-----------------|

|

| E|-0---0-0-2---2-22|-2---2-2-0---0-00|-0---0-0-2---2-22|-0---0-0-0---0-00|

| B|-0---0-0-3---3-33|-3---3-3-1---1-11|-0---0-0-3---3-33|-2---2-2-1---1-11|

| G|-0---0-0-4---4-44|-2---2-2-2---2-22|-0---0-0-4---4-44|-2---2-2-0---0-00|

| D|-2---2-2-4---4-44|-0---0-0-2---2-22|-2---2-2-4---4-44|-2---2-2-2---2-22|

| A|-2---2-2-2---2-22|---------0---0-00|-2---2-2-2---2-22|-0---0-0-3---3-33|

|-E|-0---0-0---------|-----------------|-0---0-0---------|-----------------|



"Love hurts ..." 1 (Gradual Bend)

|-E|[17b]------------|[17b]------------|-----------------|-------------17b-|

| B|-----------------|-----------------|-----------------|-----------------|

| G|-----------------|-----------------|-----------------|-----------------|

| D|-----------------|-----------------|-----------------|-----------------|

| A|-----------------|-----------------|-----------------|-----------------|

| E|-----------------|-----------------|-----------------|-----------------|

|

| E|---7---7-----10--|-----------------|---7---7-----10--|-5---------------|

| B|-----0-----7---10|-7---7-8-5---5-7-|-----0-----7---10|-5---5-----------|

| G|-9---0---7-------|-7-7-----5-5-----|-9---0---7-------|-6---6--/9---9---|

| D|---------9-------|-7-------7-------|---------9-------|-7-7---7/1010--10|

| A|-----------------|-----------------|-----------------|-----------------|

| E|-----------------|-----------------|-----------------|-----------------|

|

| E|-0---0-0-2---2-22|-2---2-2-0---0-00|-0---0-0-2---2-22|-0---0-0-0---0-00|

| B|-0---0-0-3---3-33|-3---3-3-1---1-11|-0---0-0-3---3-33|-2---2-2-1---1-11|

| G|-0---0-0-4---4-44|-2---2-2-2---2-22|-0---0-0-4---4-44|-2---2-2-0---0-00|

| D|-2---2-2-4---4-44|-0---0-0-2---2-22|-2---2-2-4---4-44|-2---2-2-2---2-22|

| A|-2---2-2-2---2-22|---------0---0-00|-2---2-2-2---2-22|-0---0-0-3---3-33|

|-E|-0---0-0---------|-----------------|-0---0-0---------|-----------------|



Gtr. 7

|-E|[17b]-------------*|

| B|------------------*|

| G|------------------*|

| D|------------------*|

| A|------------------*|

| E|------------------*|

|

| Gtr. 1

| E|-0----------------*|

| B|-8----------------*|

| G|-0----------------*|

| D|-9----------------*|

| A|------------------*|

| E|------------------*|

|

| Gtr. 2

| E|-0----------------*|

| B|-0----------------*|

| G|-0----------------*|

| D|-2----------------*|

| A|-2----------------*|

|-E|-0----------------*|


 

Light Grenades


Gtr I (E A D G B E) - 'Lead 1'

Gtr II (E A D G B E) - 'Lead 2'

Gtr III (E A D G B E) - 'Clean'



Intro

Q=239

N.C. Gb5 N.C.

4/4

Gtr I

E E E Q E E E E E E E E E E E E E E Q E E E

||-----------------|-----------------|--------------------|

||o----------------|-----------------|--------------------|

||-----------------|-----------------|--------------------|

||-----------------|---------4-4-4---|------------(3)p(0)-|

||o-5-3p0----0-3p0-|-6p0-3p0-4-4-4-0-|-5-3p0----0--3p==0--|

||--------4--------|---------2-2-2---|-------4------------|

|

| Gtr II

| W W W

||-----------------|-----------------|--------------------|

||o----------------|-----------------|--------------------|

||-----------------|-----------------|--------------------|

||-----------------|-----------------|--------------------|

||o----------------|-----------------|--------------------|

||-----------------|-----------------|--------------------|





1. 2.

Ab7

E E E E E E E E E E E E E E q

|---------------------||--------------------|

|------4-4-4-4-4-----o||-4-4--4--4-4-4-4----|

|------5-5-5-5-5------||-5-5--5--5-5-5-5----|

|-(4)--4-4-4-4-4------||-4-4--4--4-4-4-4----|

|--6p0-6-6-6-6-6-(0)-o||-6-6--6--6-6-6-6----|

|------4-4-4-4-4------||-4-4--4--4-4-4-4----|

|

| <

| W Q H.

|---------------------||--------------------|

|--------------------o||-----[4]------------|

|---------------------||--------------------|

|---------------------||--------------------|

|--------------------o||--------------------|

|---------------------||--------------------|





N.C. Gb5 N.C.

E E E Q E E E E E E E E E E E

||-----------------|-------------------|

||o----------------|-------------------|

||-----------------|-------------------|

||-----------------|---------4-4-4-----|

||o-5-3p0----0-3p0-|-6p0-3p0-4-4-4-(0)-|

||--------4--------|---------2-2-2-----|





1. 2.

Ab7

E E E Q E E E E E E E E E q E E E E E E E E

|----------------|-----------------||------------------||

|----------------|---4-4-4-4-4-4--o||------------------||

|----------------|---5-5-5-5-5-5---||-5-5-5-5-5-5-x----||

|----------------|-4-4-4-4-4-4-4---||-4-4-4-4-4-4-x-6--||

|-5-3p0----0-3p0-|-6-6-6-6-6-6-6--o||-6-6-6-6-6-6-x----||

|-------4--------|-4-4-4-4-4-4-4---||-4-4-4-4-4-4-x----||





Verse

N.C. Fm7

+E E E E Q E E E E E E Q E E E E E E Q E E E E E E Q E E

||-------------------|----------------|----------------|-----------------|

||o-----------7------|---------7------|---------7------|---------7-----9-|

||-------------------|----------------|----------------|---------------8-|

||--(6)-4-x-x----x-4h|=6p4-x-x----x-4h|=6p4-x-x----x-4h|=6p4-x-x----x-10-|

||o------------------|----------------|----------------|---------------8-|

||-------------------|----------------|----------------|-----------------|





E7+9 N.C.

+E E E E E E E E E E E E E E E E

|---------------------------|-----------------|

|--(9)--9--9--9--9--9--9--9-|-8-8-8-8-8-8-x---|

|--(8)--8--8--8--8--8--8--8-|-7-7-7-7-7-7-x---|

|-(10)-10-10-10-10-10-10-10-|-6-6-6-6-6-6-x-6-|

|--(8)--8--8--8--8--8--8--8-|-7-7-7-7-7-7-x---|

|---------------------------|-----------------|





+E E E E Q E E E E E E Q E E

|------------------|------------------|

|-----------7------|---------7--------|

|------------------|------------------|

|-(6)-4-x-x----x-4h|=6p4-x-x----x-4h==|

|------------------|------------------|

|------------------|------------------|





Fm7

E E E E Q E E E E E E Q E E +E E E E E E E E

|----------------|-----------------|---------------------------|

|---------7------|---------7-----9-|--(9)--9--9--9--9--9--9--9-|

|----------------|---------------8-|--(8)--8--8--8--8--8--8--8-|

|-6p4-x-x----x-4h|=6p4-x-x----x-10-|-(10)-10-10-10-10-10-10-10-|

|----------------|---------------8-|--(8)--8--8--8--8--8--8--8-|

|----------------|-----------------|---------------------------|





E7+9 Fm7 E7+9 Ab7

E E E E E E E E +E E E E E E E E E E E E E E E E

|------------------|---------------------------|---------------4-||

|-8-8-8-8-8-8-8--9-|--(9)--9--9--9--9--9--9--9-|-8-8-8-8-8-x-x-4-||

|-7-7-7-7-7-7-7--8-|--(8)--8--8--8--8--8--8--8-|-7-7-7-7-7-x-x-5-||

|-6-6-6-6-6-6-6-10-|-(10)-10-10-10-10-10-10-10-|-6-6-6-6-6-x-x-4-||

|-7-7-7-7-7-7-7--8-|--(8)--8--8--8--8--8--8--8-|-7-7-7-7-7-x-x-6-||

|------------------|---------------------------|---------------4-||





horus

G7 E7 Eb7 Ab7

+E E Q E E E E +E E Q E E E E +E E Q E E E E +E E E E Q E E

|-(4)-4-4--4-4-4-3-|-(3)-3-3--3-3-3-0-|-(0)-0-0--0-0-0-3-|-(3)-3-3-3-3--3-4--|

|-(4)-4-4--4-4-4-3-|-(3)-3-3--3-3-3-0-|-(0)-0-0--0-0-0-2-|-(2)-2-2-2-2--2-4--|

|-(5)-5-5--5-5-5-4-|-(4)-4-4--4-4-4-1-|-(1)-1-1--1-1-1-3-|-(3)-3-3-3-3--3-5--|

|-(4)-4-4--4-4-4-3-|-(3)-3-3--3-3-3-0-|-(0)-0-0--0-0-0-1-|-(1)-1-1-1-1--1-4--|

|-(6)-6-6--6-6-6-5-|-(5)-5-5--5-5-5-2-|-(2)-2-2--2-2-2---|----------------6--|

|-(4)-4-4--4-4-4-3-|-(3)-3-3--3-3-3-0-|-(0)-0-0--0-0-0---|----------------4--|





1.

G7 E7 N.C.

+E E Q E E E E +E E Q E E E E +E E E E Q Q Q Q Q E E

|-(4)-4-4--4-4-4-3-|-(3)-3-3--3-3-3-0-|-(0)-0-0-0-------|---------------||

|-(4)-4-4--4-4-4-3-|-(3)-3-3--3-3-3-0-|-(0)-0-0-0-x--x--|-x--x--x-------||

|-(5)-5-5--5-5-5-4-|-(4)-4-4--4-4-4-1-|-(1)-1-1-1-x--x--|-x--x--x-------||

|-(4)-4-4--4-4-4-3-|-(3)-3-3--3-3-3-0-|-(0)-0-0-0-x--x--|-x--x--x-------||

|-(6)-6-6--6-6-6-5-|-(5)-5-5--5-5-5-2-|-(2)-2-2-2-------|----------0----||

|-(4)-4-4--4-4-4-3-|-(3)-3-3--3-3-3-0-|-(0)-0-0-0-------|----------0-4--||





Bridge

N.C.

+E E Q Q E E +E E Q E E E E +e E Q Q E E +E E Q E E E E

|-----------------|------------------|-----------------|--------------------||

|-----------------|------------------|-----------------|-------------------o||

|-----------------|------------------|-----------------|--------------------||

|-----------------|------------------|-----------------|----------------6---||

|-----------------|----------x-x-----|----------x--x---|-------------------o||

|-(4)-2-4--x----4-|-(4)-2-4--x-x-2-4-|-(4)-2-4--x--x-4-|-(4)-2-4--x-x-x-----||





Chorus Extended (first note tied)

2.

E7 Ab7 G7

Q E Q Q. H. E E +E E Q Q E E

|-(0)--0-0-------|-----------4-|-(4)-4-4--4--4-3-|

|-(0)--0-0-------|---------x-4-|-(4)-4-4--4--4-3-|

|-(1)--1-1-------|---------x-5-|-(5)-5-5--5--5-4-|

|-(0)--0-0-------|---------x-4-|-(4)-4-4--4--4-3-|

|-(2)--2-2-------|---------x-6-|-(6)-6-6--6--6-5-|

|-(0)--0-0-------|-----------4-|-(4)-4-4--4--4-3-|





E7 Eb7

+E E Q Q E E +E E Q Q E E

|-(3)-3-3--3--3-0-|-(0)-0-0--0--0-3---|

|-(3)-3-3--3--3-0-|-(0)-0-0--0--0-2---|

|-(4)-4-4--4--4-1-|-(1)-1-1--1--1-3---|

|-(3)-3-3--3--3-0-|-(0)-0-0--0--0-1---|

|-(5)-5-5--5--5-2-|-(2)-2-2--2--2-----|

|-(3)-3-3--3--3-0-|-(0)-0-0--0--0-----|





Ab7 G7

+E E E E Q E E +E E Q Q E E

|-(3)-3-3-3-3--3-4-|-(4)-4-4--4--4-3-|

|-(2)-2-2-2-2--2-4-|-(4)-4-4--4--4-3-|

|-(3)-3-3-3-3--3-5-|-(5)-5-5--5--5-4-|

|-(1)-1-1-1-1--1-4-|-(4)-4-4--4--4-3-|

|----------------6-|-(6)-6-6--6--6-5-|

|----------------4-|-(4)-4-4--4--4-3-|





E7

+E E Q Q E E +Q E Q Q. W

|-(3)-3-3--3--3-0-|-(0)--0-0-------|------||

|-(3)-3-3--3--3-0-|-(0)--0-0-------|------||

|-(4)-4-4--4--4-1-|-(1)--1-1-------|------||

|-(3)-3-3--3--3-0-|-(0)--0-0-------|------||

|-(5)-5-5--5--5-2-|-(2)--2-2-------|------||

|-(3)-3-3--3--3-0-|-(0)--0-0-------|------||





Bridge

N.C.

PM----------------------------------------------------------------|

e e e q e e e e e e e e e e e e e e q e e e e e e e e e e e

||-----------------|-----------------|----------------|------------------||

||o----------------|-----------------|----------------|-----------------o||

||-----------------|-----------------|----------------|------------------||

||-----------------|-----------------|----------------|------------------||

||o-5-3-0----0-3-0-|-6-0-3-0-6-0-3-0-|-5-3-0----0-3-0-|-6-0-3-0-6-0-3-0-o||

||--------4--------|-----------------|-------4--------|------------------||





uitar Solo

N.C.

PM------------------------------------------------------

e e e q e e e e e e e e e e e

|-------------------------------|-------------------------|

|-------------------------------|-------------------------|

|-------------------------------|-------------------------|

|-------------------------------|-------------------------|

|--5--3--0--------------0--3--0-|--6--0--3--0--6--0--3--0-|

|-----------4-------------------|-------------------------|

|

| Gtr II

| TP

| E E E E +E E E E E E E E E E E E

|-------------------------13-14-|-15-14-13----14-13-------|

|----------17b19==(17)r16-------|----------16-------16-15-|

|-------------------------------|-------------------------|

|-16h18p16----------------------|-------------------------|

|-------------------------------|-------------------------|

|-------------------------------|-------------------------|





------------------------------------------------------|

e e e q e e e e e e e e e e e

|-------------------------------|-------------------------|

|-------------------------------|-------------------------|

|-------------------------------|-------------------------|

|-------------------------------|-------------------------|

|--5--3--0--------------0--3--0-|--6--0--3--0--6--0--3-0--|

|-----------4-------------------|-------------------------|

|

| TP

| E E E E +E E E E E E E E E E Q

|-------------------------------|-------------------------|

|----------17b19==(17)r16-15-16-|-15-15-15-15-15-15-15----|

|-------------------------------|-------------------------|

|-16h18p16----------------------|-------------------------|

|-------------------------------|-------------------------|

|-------------------------------|-------------------------|





PM------------------------------------------------------

e e e q e e e e e e e e e e e

|-------------------------------|-------------------------|

|-------------------------------|-------------------------|

|-------------------------------|-------------------------|

|-------------------------------|-------------------------|

|--5--3--0--------------0--3--0-|--6--0--3--0--6--0--3--0-|

|-----------4-------------------|-------------------------|

|

| TP

| E E E E +E E E E E E E E E E E E

|-------------------------13-14-|-15-14-13----14-13-------|

|----------17b19==(17)r16-------|----------16-------16-15-|

|-------------------------------|-------------------------|

|-16h18p16----------------------|-------------------------|

|-------------------------------|-------------------------|

|-------------------------------|-------------------------|





------------------------------------------------------|

e e e q e e e e e e e e e e e

|-------------------------------------|------------------|

|-------------------------------------|------------------|

|-------------------------------------|------------------|

|-------------------------------------|------------------|

|--5--3--0--------------------0---3-0-|-6--0-3-0-6-0-3-0-|

|-----------4-------------------------|------------------|

|

| TP

| E E E E +S +S E Q W

|----------14-----(14)-(14)-(14)------|------------------|

|----------17b19==(17)r(17)s=16--15---|------------------|

|-------------------------------------|------------------|

|-16h18p16----------------------------|-x/---------------|

|-------------------------------------|-x/---------------|

|-------------------------------------|-x/---------------|





E E E Q E E E E E E E E E E E

|---------------------|-----------------------|

|---------------------|-----------------------|

|---------------------|-----------------------|

|---------------------|-----------------------|

|--5-3-0--------0-3-0-|---6--0-3-0-6-0---3--0-|

|--------4------------|-----------------------|

|

| TP TP TP TP

| H H +H. Q

|---------------------|-----------------------|

|---------------------|-----------------12----|

|-11--------11--------|-(11)------------11----|

|-10-------(10)-------|-(10)-----------(10)---|

|--9---------9--------|--(9)-------------9----|

|---------------------|-----------------------|





E E E Q E E E E E E E E E E E

|--------------------------|------------------------------|

|--------------------------|------------------------------|

|--------------------------|------------------------------|

|--------------------------|------------------------------|

|---5--3---0---------0-3-0-|---6--0---3--0---6--0---3--0--|

|-------------4------------|------------------------------|

|

| TP TP TP TP TP TP

| Q Q H +Q Q Q +Q

|--------------------------|------------------------------|

|---------12---------------|---------12-------------------|

|--11-----11-----11--------|-(11)----11-----11----(11)----|

|-(10)---(10)---(10)-------|-(10)---(10)---(10)---(10)----|

|---9------9------9--------|--(9)-----9------9-----(9)----|

|--------------------------|------------------------------|





E E E Q E E E E E E E E E E E

|-------------------------|----------------------------|

|-------------------------|----------------------------|

|-------------------------|----------------------------|

|-------------------------|----------------------------|

|--5---3-0-------0--3---0-|---6--0---3-0--6---0-3--0---|

|-----------4-------------|----------------------------|

|

| \7/ /7\ \7/ /7\ \7/ /7\

| Q. Q. Q +E Q. Q. E

|-------------------------|----------------------------|

|-------------------------|----------------------------|

|-11-------11------11-----|-(11)-x-------11-------11---|

|-------------------------|------x---------------------|

|--9--------9-------9-----|--(9)-x--------9--------9---|

|-------------------------|----------------------------|





E7+9 Ab7

Gtr III

E E E Q E E E E E E E E E E E

|------------------------|----------------------------4--||

|------------------------|-(8)--(8)-(8)-(8)-(8)-(8)-x-4--||

|------------------------|--7----7---7---7---7---7--x-5--||

|------------------------|--6----6---6---6---6---6--x-4--||

|---5--3--0------0---3-0-|--7----7---7---7---7---7--x-6--||

|-------------4----------|----------------------------4--||

|

| \7/ /7\ \7/

| +Q Q. Q. H E Q E

|------------------------|-------------------------------||

|------------------------|-------------------------------||

|-(11)---11------x-------|-11----------------x---x-------||

|----------------x-------|-------------------x---x-------||

|--(9)----9------x-------|--9----------------x---x-------||

|------------------------|-------------------------------||





Pre-Chorus

G7 E7 Eb7 Ab7

+E E E E Q E E +E E E E Q E E +E E E E Q E E +E E E E Q E E

|-(4)-4-4-4-4--x-3-|-(3)-3-3-3-3--x-0-|-(0)-0-0-0-0--x-3-|-(3)-3-3-3-3--3-4--|

|-(4)-4-4-4-4--x-3-|-(3)-3-3-3-3--x-0-|-(0)-0-0-0-0--x-2-|-(2)-2-2-2-2--2-4--|

|-(5)-5-5-5-5--x-4-|-(4)-4-4-4-4--x-1-|-(1)-1-1-1-1--x-3-|-(3)-3-3-3-3--3-5--|

|-(4)-4-4-4-4--x-3-|-(3)-3-3-3-3--x-0-|-(0)-0-0-0-0--x-1-|-(1)-1-1-1-1--1-4--|

|-(6)-6-6-6-6--x-5-|-(5)-5-5-5-5--x-2-|-(2)-2-2-2-2--x---|----------------6--|

|-(4)-4-4-4-4--x-3-|-(3)-3-3-3-3--x-0-|-(0)-0-0-0-0--x---|----------------4--|





G7 E7

+E E E E Q E E +E E E E Q E E

|-(4)-4-4-4-4--x-3-|-(3)-3-3-3-3--x-0-|

|-(4)-4-4-4-4--x-3-|-(3)-3-3-3-3--x-0-|

|-(5)-5-5-5-5--x-4-|-(4)-4-4-4-4--x-1-|

|-(4)-4-4-4-4--x-3-|-(3)-3-3-3-3--x-0-|

|-(6)-6-6-6-6--x-5-|-(5)-5-5-5-5--x-2-|

|-(4)-4-4-4-4--x-3-|-(3)-3-3-3-3--x-0-|

|

| Gtr II

| W W

|------------------|------------------|

|------------------|------------------|

|------------------|------------------|

|------------------|------------------|

|------------------|------------------|

|------------------|------------------|





Ab7

Gtr I

+Q E Q Q. H. E E

|-(0)--0-0-------|-------------------------4--||

|-(0)--0-0-------|-----------------------x-4--||

|-(1)--1-1-------|-----------------------x-5--||

|-(0)--0-0-------|-----------------------x-4--||

|-(2)--2-2-------|-----------------------x-6--||

|-(0)--0-0-------|-------------------------4--||

|

| W E +Q. +E Q.

|----------------|----------------------------||

|----------------|--9------(9)----(9)---------||

|----------------|-11b13==(11)---(11)r========||

|----------------|----------------------------||

|----------------|----------------------------||

|----------------|----------------------------||





Out-Chorus

G7 E7

+E E E E Q E E +E E E E Q E E

||--(4)-4-4-4-4--4-3-|-(3)-3-3-3-3--3-0-|

||o-(4)-4-4-4-4--4-3-|-(3)-3-3-3-3--3-0-|

||--(5)-5-5-5-5--5-4-|-(4)-4-4-4-4--4-1-|

||--(4)-4-4-4-4--4-3-|-(3)-3-3-3-3--3-0-|

||o-(6)-6-6-6-6--6-5-|-(5)-5-5-5-5--5-2-|

||--(4)-4-4-4-4--4-3-|-(3)-3-3-3-3--3-0-|

|

| Gtr II

| W W

||-------------------|------------------|

||o------------------|------------------|

||-------------------|------------------|

||-------------------|------------------|

||o------------------|------------------|

||-------------------|------------------|





Eb7 Ab7

+E E E E Q E E +E E E E Q E E

|-(0)-0-0-0-0--0-3-|-(3)-3-3-3-3--3-4--||

|-(0)-0-0-0-0--0-2-|-(2)-2-2-2-2--2-4-o||

|-(1)-1-1-1-1--1-3-|-(3)-3-3-3-3--3-5--||

|-(0)-0-0-0-0--0-1-|-(1)-1-1-1-1--1-4--||

|-(2)-2-2-2-2--2---|----------------6-o||

|-(0)-0-0-0-0--0---|----------------4--||

|

| W H. E E

|------------------|-------------------||

|------------------|------------------o||

|------------------|-------------------||

|------------------|-------------------||

|------------------|------------------o||

|------------------|----------------4--||





Outro

G7 E7

+E E E E Q E E +E E E E Q E E

||--(4)-4-4-4-4---4-3-|-(3)-3-3-3-3---3-0-|

||o-(4)-4-4-4-4---4-3-|-(3)-3-3-3-3---3-0-|

||--(5)-5-5-5-5---5-4-|-(4)-4-4-4-4---4-1-|

||--(4)-4-4-4-4---4-3-|-(3)-3-3-3-3---3-0-|

||o-(6)-6-6-6-6---6-5-|-(5)-5-5-5-5---5-2-|

||--(4)-4-4-4-4---4-3-|-(3)-3-3-3-3---3-0-|

|

| +E E E E E E E E +E E E E E E E E

||--------------------|-------------------|

||o-------------------|-------------------|

||--------------------|-------------------|

||--------------------|-------------------|

||o-------------------|-------------------|

||--(4)-4-4-4-4-4-4-3-|-(3)-3-3-3-3-3-3-0-|





Eb7 Ab7

+E E E E Q E E +E E E E Q E E

|-(0)-0-0-0-0---0-3-|-(3)-3-3-3-3---3-4--||

|-(0)-0-0-0-0---0-2-|-(2)-2-2-2-2---2-4-o||

|-(1)-1-1-1-1---1-3-|-(3)-3-3-3-3---3-5--||

|-(0)-0-0-0-0---0-1-|-(1)-1-1-1-1---1-4--||

|-(2)-2-2-2-2---2---|-----------------6-o||

|-(0)-0-0-0-0---0---|-----------------4--||

|

| +E E E E E E E E +E E E E E E E E

|-------------------|--------------------||

|-------------------|-------------------o||

|-------------------|--------------------||

|-------------------|--------------------||

|-----------------6-|-(6)-6-6-6-6-6-6---o||

|-(0)-0-0-0-0-0-0---|-----------------4--||





G7 E7 Eb7

E E E E E E E E E E E E E E E E E E E E E E E E

||--4-4-4-4-4-4-4-3-|-3-3-3-3-3-3-3-0-|-0-0-0-0-0-0-0-3-|

||o-4-4-4-4-4-4-4-3-|-3-3-3-3-3-3-3-0-|-0-0-0-0-0-0-0-2-|

||--5-5-5-5-5-5-5-4-|-4-4-4-4-4-4-4-1-|-1-1-1-1-1-1-1-3-|

||--4-4-4-4-4-4-4-3-|-3-3-3-3-3-3-3-0-|-0-0-0-0-0-0-0-1-|

||o-6-6-6-6-6-6-6-5-|-5-5-5-5-5-5-5-2-|-2-2-2-2-2-2-2---|

||--4-4-4-4-4-4-4-3-|-3-3-3-3-3-3-3-0-|-0-0-0-0-0-0-0---|





1. 2.

Ab7 Eb7

E E E E E E E E E E E E E E E E

|-3-3-3-3-3-3-3-4--||-3-3-3-3-3-3-3-3--||

|-2-2-2-2-2-2-2-4-o||-2-2-2-2-2-2-2-2--||

|-3-3-3-3-3-3-3-5--||-3-3-3-3-3-3-3-3--||

|-1-1-1-1-1-1-1-4--||-1-1-1-1-1-1-1-1--||

|---------------6-o||------------------||

|---------------4--||------------------||





Brandon Scream Of Death

N.C. Gb5 N.C.

E E E Q E E E E E E E E E E E

|----------------|-----------------|

|----------------|-----------------|

|----------------|-----------------|

|----------------|---------4-4-4---|

|-5-3p0----0-3p0-|-6p0-3p0-4-4-4-0-|

|-------4--------|---------2-2-2---|





Ab7 N.C.

E E E Q E E E E E E E E E E E Wx2

|----------------|-----4-4-4-4-4-4-|--------*|

|----------------|-----4-4-4-4-4-4-|--------*|

|----------------|-----5-5-5-5-5-5-|--------*|

|----------------|-----4-4-4-4-4-4-|--------*|

|-5-3p0----0-3p0-|-6p0-6-6-6-6-6-6-|--------*|

|-------4--------|-----4-4-4-4-4-4-|--------*|


 

Earth To Bella (Part 1)


Standard Tuning (EADGbe)



Intro/verse: [Acoustic]



Chords:



Cmaj Amin Emaj E7

-0- -0- -0- -0-|

-1- -1- -0- -0-|

-0- -2- -1- -1-|

-2- -2- -2- -0-|

-3- -0- -2- -2-|

--- --- -0- -0-|





Cmaj Amin

Earth to Bella



Cmaj Amin

you think you've got it all figured in



Cmaj Amin

Earth to Bella



Cmaj Amin Emaj

everything you know is wrong



E7 Cmaj

well, almost



Amin

Earth to Bella



Cmaj Amin

i see where you are not listening



Cmaj Amin

I bear the burden



Cmaj Amin Emaj

of being the voice that lets you know





we all grow old



E7

and before you swim you've gotta be ok



Cmaj

to say





{Use power chords for the wah wah distortion part using the same chords}



e|----------------------------------------------------------------------------|

b|----------------------------------------------------------------------------|

G|-5---5---5----2-2-----5---5---5---2-2-2-2-----------------------------------|

D|-5---5---5----2-2-----5---5---5---2-2-2-2-----------------------------------|

A|-3---3---3----0-0-----3---3---3---0-0-0-0-----------------------------------|

E|----------------------------------------------------------------------------|





Cmaj Amin

Earth to Bella



Cmaj Amin

The world can be an unfriendly place



Cmaj Amin

so hold your head up



Cmaj Emaj

do your best to save some face





its not so hard



E7

just undo yourself and see the second sun



Cmaj

and say





Chorus:



Ok to sink , I'm Ok to sink





Ok to sink



Outro: [Acoustic] {play this as soon as the distortion of the chorus stops}



e|---------------------------0-------0----0-------0-------------------------------|

b|-1-------1----1-------1------1-------1----1-------1-----------------------------|

G|---0-------0----0-------0------2------------2-----------------------------------|

D|-----2------------0--------3-----3------3-----3---------------------------------|

A|-3-----3------2-----2-----------------------------------------------------------|

E|--------------------------------------------------------------------------------|



Then play this until fade:



e|---------------------------0-------0----0-------0-------------------------------|

b|-1-------1----1-------1------1-------1----1-------1-----------------------------|

G|---0-------0----0-------0------2------------2-----------------------------------|

D|-----2------------2--------3-----3------3-----3---------------------------------|

A|-3-----3------3-----3-----------------------------------------------------------|

E|--------------------------------------------------------------------------------|


-Tom Lavery


 

Oil And Water


intro:

G Cmaj7



verse:

G Cmaj7 G Cmaj7 G Cmaj7 G Cmaj7

Bm Cmaj7 Bm Cmaj7 Bm Cmaj7 F C



bridge:

Am Bm F

Am Bm Em

D#aug D



Chord chart:

There are many ways to play the chords. These are just my suggestions.



G Cmaj7| Bm Cmaj7 F C | Bm F Em D#aug D

e-3---3--|-2----3---x-x-|-x--x--x-x----x---5-|

B-3---5--|-3----5---6-5-|-x--x-10-8----8---7-|

G-4---4--|-4----4---5-5-|-x--x-10-9----8---7-|

D-5---5--|-4----5---3-5-|-7--9-10-9----9---7-|

A-5---3--|-2----3---0-3-|-7--9--8-7----6---5-|

E-3---3--|-x----3---x-x-|-5--7--x-x----x---x-|

 

Diamonds And Coal


[Intro]

e|----------------------------------|--[piano]--|---|

b|----------------------------------|8~-6~-5~---|---|

g|----------------------------------|---------7~|---|

d|--------7----7-----7----7---------|-----------|---|

a|----4-5--------4-5--------4-5-----|-----------|---|

E|----------5~---------5~-------5~--|-----------|---|



[Pre-Verse]

e|---------------------------------------------------------------------|

b|---------------------------------------------------------------------|

g|---------------------------------------------------------------------|

d|------------------7-7-6-6-4-4-6-6------------------------------------|

a|----7-7-7-7-7-7-7-5-5-4-4-2-2-4-4/--5-5-5-5-5-5-5-5-5-5-5-5-5-5-5-5--|

E|----5-5-5-5-5-5-5-------------------3-3-3-3-3-3-3-3-3-3-3-3-3-3-3-3--|

* * * * * * * * * * * * * * * * * * * * * * * * *

[Verse]

e|---------------------------------------------------------------------|

b|---------------------------------------------------------------------|

g|---------------------------------------------------------------------|

d|------------------7-7-6-6-4-4-6-6------------------------------------|

a|----7-7-7-7-7-7-7-5-5-4-4-2-2-4-4/--5-5-5-5-5-5-5-5-5-5-5-5-5-5-5-7--|

E|----5-5-5-5-5-5-5-------------------3-3-3-3-3-3-3-3-3-3-3-3-3-3-3-5--|

* * * * * * * * * * * * * * * * * * * * * * * *



[Chorus]

e|---------------------------------------------------------------------|

b|---------------------------------------------------------------------|

g|---------------------------------------------------------------------|

d|------------------7-7-6-6-4-4-6-6---5-5-5-5-5-5-5-5-5-5-5-5-5-5-5-5--|

a|----7-7-7-7-7-7-7-5-5-4-4-2-2-4-4/--5-5-5-5-5-5-5-5-5-5-5-5-5-5-5-5--|

E|----5-5-5-5-5-5-5-------------------3-3-3-3-3-3-3-3-3-3-3-3-3-3-3-3--|

* * * * * * * * * * * * * * * * * * * * * * * * *

e|---------------------------------------------------|---------------|

b|---------------------------------------------------|-----1st-------|

g|---------------------------------------------------|--Chorus-Only--|

d|------------------7-7-6-6-4-4-6-6---5-5-5-5-5-5-5-5|5-5-5-5-5-5-5-5|

a|----7-7-7-7-7-7-7-5-5-4-4-2-2-4-4/--5-5-5-5-5-5-5-5|5-5-5-5-5-5-5-5|

E|----5-5-5-5-5-5-5-------------------3-3-3-3-3-3-3-3|3-3-3-3-3-3-3-3|

* * * * * * * * * * * * * *

e|---------------|

b|--2nd-&-Final--|

g|----Chorus-----|

d|2-2-2-2-2-2-2-2|

a|2-2-2-2-2-2-2-2|

e|0-0-0-0-0-0-0-0|



[Bridge A]

e|---------------------------------------------------------------------|

b|---------------------------------------------------------------------|

g|---------------------------------------------------------------------|

d|---------------------------------------------------------------------|

a|----14-16-14-16-14-16-14----14-16-14-16-14-16-14----12-14-12-14-12-14|

E|---------------------------------------------------------------------|



e|---------------------------------------------------------------------|

b|---------------------------------------------------------------------|

g|---------------------------------------------------------------------|

d|---------------------------------------------------------------------|

a|-12----12-14-12-14-12-14-12------------------------------------------|

E|---------------------------------------------------------------------|



[Bridge B]

e|----------------------------------|--[piano]--|---|

b|----------------------------------|8~-6~-5~---|---|

g|----------------------------------|---------7~|---|

d|--------7----7-----7----7---------|-----------|---|

a|----4-5--------4-5--------4-5-----|---Not-3rd-|---|

E|----------5~---------5~-------5~--|-----Time--|---|



[Bridge C]

e|----------------------------------|

b|----------------------------------|

g|----------------------------------|

d|--------5----5-----5----5---------|

a|----2-3--------2-3--------2-3-----|

E|----------3~---------3~-------3~--|



[Bridge D]

e|-------------------------------------------------------------------------|

b|-------------------------------------------------------------------------|

g|-------------------------------------------------------------------------|

d|--------3----3-----3-----------------------------------------------------|

a|----0-1--------0-1-----3-1-0---------------------------------------------|

E|----------1~---------1-------3-1-0-0-0-0-0-0-0-0-0-0-0-0-0-0-0-----------|



[Solo]

e|-------------------------------------------------------------------------|

b|-------------------------------------------------------------------------|

g|----14-14-14-14-14-14-14-14-14-14-14-14-14-14-14-14-12-12-12-12-12-12-12-|

d|-------------------------------------------------------------------------|

a|----------------------------------------------------14-12-14-12-14-12-12-|

E|-------------------------------------------------------------------------|



e|-------------------------------------------------------------------------|

b|-------------------------------------------------------------------------|

g|-12-12-12-12-12-12-12-12-14-16-14-16-14-16-14----14-16-14-16-14-16-14----|

d|-------------------------------------------------------------------------|

a|-12-14-12-14-12-14-12-12-------------------------------------------------|

E|-------------------------------------------------------------------------|



[Outro]

e|-------------------------------------------------------------------------|

b|-------------------------------------------------------------------------|

g|-------------------------------------------------------------------------|

d|--------7----7-----5----5------------------------------------------------|

a|----4-5--------2-3--------0-1--------------------------------------------|

E|----------5~---------3~-------1-0~---------------------------------------|



Play Order

[Intro] x2

[Pre-Verse]

[Verse] x4

[Chorus]

[Verse] x4

[Chorus]

[Bridge A]

[Bridge B] x3

[Bridge C]

[Bridge D]

[Solo]

[Chorus]

[Bridge A] x2

[Outro]


 

Rogues


(Solo Added)



Intro

|-----------------------------------------------------------------------|

|-----------------------------------------------------------------------|

|-----------------------------------------------------------------------|

|------0-----0-----0-----0-----0--------0-----0-----0-----0-------------|

|----0-----0-----0-----0-----0---0----0-----0-----0-----0------0--------|

|--2----/8-----8-----8-----8------/12---/14----14----14-----14---14\----|



|-----------------------------------------------------------------------|

|-----------------------------------------------------------------------|

|-----------------------------------------------------------------------|

|------0-----0-----0-----0-----0--------0-----0-----0-----0-----0-------|

|----0-----0-----0-----0-----0---0----0-----0-----0-----0-----0--(0)----|

|--2----/8-----8-----8-----8------/12----12----10----10----10-----------|





Pre-Verse 2x

|---------------------------------------------------------------------|

|---------------------------------------------------------------------|

|---------------------------------------------------------------------|

|---------------------------------7-----------------------------------|

|-----------5---------------5-x-x-----------------5~---5b-///////////-|

|-x-7-7-5-7---5-5-7-7-5-5-7----------5----7-7-5-7---------------------|

tp & bend gradually



|-------------|-------------------------------|

|-x-x-x-x-x-x-|-9--9-x-x-9-9---8-8-8-x-x-8--8-|

|-x-x-x-x-x-x-|-7--7-x-x-7-7---7-7-7-x-x-7--7-|

|-x-x-x-x-x-x-|-9--9-x-x-9-9---9-9-9-x-x-9--9-|

|-------------|-------------------------------|

|-------------|-------------------------------|

play 1st time (B)



|-7-7-7--x-x--7-7----7-7-7--x-x--7-7-7-|

|-7-7-7--x-x--7-7----7-7-7--x-x--7-7-7-|

|-7-7-7--x-x--7-7----7-7-7--x-x--7-7-7-|

|-9-9-9--x-x--9-9----9-9-9--x-x--9-9-9-|

|-9-9-9--x-x--9-9----9-9-9--x-x--9-9-9-|

|-7-7-7--x-x--7-7----7-7-7--x-x--7-7-7-|

(A)



Pre-Chorus

|--7--|----|--2--|--2--|-(6)-|-----| third time

|--7--|----|--2--|--2--|--7--|--7--| play these chords

|--7--|-10-|--3--|--3--|--6--|--7--| in the same pattern

|--9--|-9--|--4--|--4--|--8--|--7--| as above

|--9--|-10-|--4--|--4--|--6--|--5--|

|--7--|----|--2--|--0--|-----|-----|





Chorus

|---------------------------------------|

|---------------------------------------|

|---------------------------------------|

|-9--9--9--9--9--9--11-x-9-9-9-9-9-9-11-|

|-10-10-10-10-10-10-10-x-9-9-9-9-9-9--9-|

|---------------------------------------|



|----------------------------------------|

|----------------------------------------|

|-x-11-11---11-11-11----11-11---11-11-11-|

|-x-12-12-x-----------x-12-12-x----------|

|-x-12-12-x--9--9--9--x-12-12-x--9--9--9-|

|-x-10-10---------------10-10------------|

repeat at end of chorus



|---------------------------------------------------------------------|

|---------------------------------------------------------------------|

|---------------------------------------------------------------------|

|---------------------------------7-----------------------------------|

|-----------5---------------5-x-x-----------------5~---5b-///////////-|

|-x-7-7-5-7---5-5-7-7-5-5-7----------5----7-7-5-7---------------------|





|-------------|-------------------------------|

|-x-x-x-x-x-x-|-9--9-x-x-9-9---8-8-8-x-x-8--8-|

|-x-x-x-x-x-x-|-7--7-x-x-7-7---7-7-7-x-x-7--7-|

|-x-x-x-x-x-x-|-9--9-x-x-9-9---9-9-9-x-x-9--9-|

|-------------|-------------------------------|

|-------------|-------------------------------|





|-7-7-7--x-x--7-7----7-7-7--x-x--7-7-7-|

|-7-7-7--x-x--7-7----7-7-7--x-x--7-7-7-|

|-7-7-7--x-x--7-7----7-7-7--x-x--7-7-7-|

|-9-9-9--x-x--9-9----9-9-9--x-x--9-9-9-|

|-9-9-9--x-x--9-9----9-9-9--x-x--9-9-9-|

|-7-7-7--x-x--7-7----7-7-7--x-x--7-7-7-|





|--7--|----|--2--|--2--|-(6)-|-----|

|--7--|----|--2--|--2--|--7--|--7--|

|--7--|-10-|--3--|--3--|--6--|--7--|

|--9--|-9--|--4--|--4--|--8--|--7--|

|--9--|-10-|--4--|--4--|--6--|--5--|

|--7--|----|--2--|--0--|-----|-----|





|---------------------------------------|

|---------------------------------------|

|---------------------------------------|

|-9--9--9--9--9--9--11-x-9-9-9-9-9-9-11-|

|-10-10-10-10-10-10-10-x-9-9-9-9-9-9--9-|

|---------------------------------------|



|----------------------------------------|

|----------------------------------------|

|-x-11-11---11-11-11----11-11---11-11-11-|

|-x-12-12-x-----------x-12-12-x----------|

|-x-12-12-x--9--9--9--x-12-12-x--9--9--9-|

|-x-10-10---------------10-10------------|





Solo

|-----------------------------------9-9b10br--7--9-----|

|-----7--9--9b10br--7--9--7-------x-----------------0--|

|------------------------------7--x--------------------|

|--9------------------------9--------------------------|

|------------------------------------------------------|

|------------------------------------------------------|



|--------------------------------------10-10--10br-------|

|-------9--9b10br--------9--------9--x----------------0--|

|------------------7-----------7-----x-------------------|

|--8------------------8-----8----------------------------|

|--------------------------------------------------------|

|--------------------------------------------------------|



|--15b----15----15-15--15-----15-15--|

|--15b----15----15-15--15--15-15-15--|

|-------------0---------------16-16--|

|------------------------------------|

|------------------------------------|

|------------------------------------|



|-15--15b-15-15-15-15-15-15-15-15-15---|

|-15--15b-15-15-15-15-15-15-15-15-15-0-|

|-16---------------------------------0-|

|--------------------------------------|

|--------------------------------------|

|--------------------------------------|



|----------------------------9---------9------9------x-|

|--------------8------8---------8----------------8---x-|

|----7--9--10-----10-----10--------10-----10--------10-|

|-8----------------------------------------------------|

|------------------------------------------------------|

|------------------------------------------------------|



|-----------------------|----------------------|

|--15---------------15--|-----------15---------|

|-----------------------|----------------------|

|----------12-----------|---12------------12---|

|-----------------------|----------------------|

|-----------------------|----------------------|



|--16---------------16--|-----------16---------|

|-----------------------|----------------------|

|-----------------------|----------------------|

|----------12-----------|---12------------12---|

|-----------------------|----------------------|

|-----------------------|----------------------|



|-14--14--14--14--14--14--14--14--|--13--13--12--12--11--11--0-|

|---------------------------------|--------------------------0-|

|---------------------------------|----------------------------|

|---------------------------------|----------------------------|

|---------------------------------|----------------------------|

|---------------------------------|----------------------------|



|--------------15--15--16--16--15--|---------------------------|

|--15--15--15--15--15--15--15--15--|---------------------------|

|--13--13--13--13--13--13--13--13--|---------------------------|

|----------12----------------------|--------0---------0--------|

|----------------------------------|--------0---------0--------|

|----------------------------------|--3b^---0--3b^----0--3b^---|



|--2-2-2-2-2-2-2-2-2-2-2-2-2-2-2-2-|

|--3-3-3-3-3-3-3-3-3-3-3-3-3-3-3-3-|

|--4-4-4-4-4-4-4-4-4-4-4-4-4-4-4-4-|

|----------------------------------|

|----------------------------------|

|----------------------------------|
 

Paper Shoes


Standard Tuning (EADGbe)



Intro/verse: [Acoustic] {Finger picking}



e|--------------------------------------------------------------------------------|

b|-3-----3-------3------3-------3------3-------3-----3-------3--------------------|

G|---0-----0-------0-------0-------0-----0-------0-----0-------0------------------|

D|-----0-----0-------0-------0-------0-----0-------0-----0-------0----------------|

A|-3-----2-----2--------1------1--------------------------------------------------|

E|-------------------------------------3-----3-------3-----3----------------------|



I fly

I soar

this I adore



you'd fly

you'd soar

but then like a locomotive

the sound of your sorrow comes

I'm tired of the way it feels

I only apologized to you to make you feel better

I think I've outgrown that wholesale sweater

I'd rather be on my own

You're 'bout as reliable as paper shoes in bad weathers

but pain will roll off like water on feathers



I'm tired of the way that it feels

I only apologized to you to make you feel better

I think I've outgrown that horsehair sweater

I'd rather be on my own

You're 'bout as reliable as paper shoes in bad weathers

but pain will roll off like water on feathers



Chorus:



Chords

C#min Amaj F#min G#maj Bmaj

-4- -0- -2- -4- -2-

-5- -2- -2- -4- -4-

-6- -2- -2- -5- -4-

-6- -2- -4- -6- -4-

-4- -0- -4- -6- -2-

--- --- -2- -4- ---



Amaj G#maj

and then like a locomotive



C#min

the sound of your sorrow comes



Amaj

I'm tired of the way it feels



F#min

I only apologized to you to make you feel better



G#maj Bmaj

I think I've outgrown that wholesale sweater



C#min Amaj

I'd rather be alone



F#min

You're 'bout as reliable as paper shoes in bad weathers



G#maj Bmaj

but pain will roll off like water on feathers





Verse



Chorus



Verse



Chorus



Outro/intro: {Play intro}
 

Pendulous Threads



* = fast strum



Intro (Ring Mod & Phaser)

||---------------------|----------------------|

||o--------------------|----------------------|

||---------------------|----------------------|

||--------------4------|-------------4-(0)-4--|

||o--------------------|---------2-0---(0)----|

||----0-3b3.5-0------0-|-3b3.5-0--------------|



|--------------------|------------------------||

|--------------------|-----------------------o||

|--------------------|------------------------||

|-------------4------|-------------4-(0)-4----||

|--------------------|---------2-0---(0)-----o||

|---0-3b3.5-0------0-|-3b3.5-0----------------||





Chorus

|----------------|----------------|----------------|----------------|

|-----8---8------|-----8---8------|-----8---8------|-----8---8------|

|-----9---9--x-x-|-x---9-x-9--x-x-|-x-x-9-x-9--x-x-|-x-x-9---9--x---|

|-----9---9--x-x-|-x---9-x-9--x-x-|-x-x-9-x-9--x-x-|-x-x-9---9--x---|

|-----7---7--x-x-|-x---7-x-7--x-x-|-x-x-7-x-7--x-x-|-x-x-7---7--x---|

|-0-0------------|---0------------|----------------|--------------5/|



|-----------------|--------------------|-----------------|-------------------|

|-----------------|--------------------|-----------------|-------------------|

|-----7-----7---7-|-(7)---7-------7\---|-----3-----3-----|---------------0-0-|

|-----------------|--------------------|---------------5-|-(5)-5-5-5-5-5-0-0-|

|-----------------|--------------------|---------------5-|-(5)-5-5-5-5-5-0-0-|

|-7-7---7-7---7---|-----7----7-7-(7)\--|-3-3---3-3---3-3-|-(3)-3-3-3-3-3-----|



|----------------|----------------|----------------|----------------|

|-----8---8------|-----8---8------|-----8---8------|-----8---8------|

|-----9---9--x-x-|-x---9-x-9--x-x-|-x-x-9-x-9--x-x-|-x-x-9---9--x---|

|-----9---9--x-x-|-x---9-x-9--x-x-|-x-x-9-x-9--x-x-|-x-x-9---9--x---|

|-----7---7--x-x-|-x---7-x-7--x-x-|-x-x-7-x-7--x-x-|-x-x-7---7--x---|

|-0-0------------|---0------------|----------------|--------------5/|



|-----------------|---------------------|

|-----------------|---------------------|

|-----7-----7---7-|-(7)---7/11-11\7-7---|

|-----------------|---------------------|

|-----------------|---------------------|

|-7-7---7-7---7---|-----7-------------7\|



|-----------------|-----------14-14-14-14-14-14---||

|-----------------|-----------12-12-12-12-12-12---||

|-----3-----3-----|-----------14-14-14-14-14-14---||

|---------------5-|-(5)-5-5-5---------------------||

|---------------5-|-(5)-5-5-5---------------------||

|-3-3---3-3---3-3-|-(3)-3-3-3---------------------||





Verse 1

|---14-x-x-14-x--x-14-|---14-x-14-14-14-14-14-14-14-|

|---12-x-x-12-x--x-12-|---12-x-12-12-12-12-12-12-12-|

|---14-x-x-14p12-x-14-|---14-x-14-14-14-14-14-14-14-|

|---------------------|-----------------------------|

|---------------------|-----------------------------|

|---------------------|-----------------------------|



|---14-x-14-14-x-x-14-|---14-x-14-14-14-14-14-14-14-|

|---12-x--x-12-x-x-12-|---12-x-12-12-12-12-12-12-12-|

|---12-x-12-12-x-x-12-|---12-x-12-12-12-12-12-12-12-|

|---------------------|-----------------------------|

|---------------------|-----------------------------|

|---------------------|-----------------------------|



|---14-x-x-14-x-x-14-|---14-x-14-14-14-14-14-14-14-|

|---12-x-x-12-x-x-12-|---12-x-12-12-12-12-12-12-12-|

|---14-x-x-14-x-x-14-|---14-x-14-14-14-14-14-14-14-|

|--------------------|-----------------------------|

|--------------------|-----------------------------|

|--------------------|-----------------------------|







|---14-x-14-14-14-14-14-|---14-x-14-14-14-14-14-14-14-|

|---12-x-12-12-12-12-12-|---12-x-12-12-12-12-12-12-12-|

|---12-x-12-12-12-12-12-|---12-x-12-12-12-12-12-12-12-|

|-----------------------|-----------------------------|

|-----------------------|-----------------------------|

|-----------------------|-----------------------------|



|---14-x-x-14-x-x-14-|---14-x-14-14-14-14-14-14-14-|

|----x-x-x--x-x-x--x-|----x-x--x--x--x--x--x--x--x-|

|----x-x-x--x-x-x--x-|----x-x--x-12-12-12-12-12-12-|

|---14-x-x-14-x-x-14-|---14-x-14-14-14-14-14-14-14-|

|--------------------|-----------------------------|

|--------------------|-----------------------------|



|---14-x-14-14-x-x-14-|---14-x-14-14-14-14-14-14-14-|

|---12-x--x-12-x-x-12-|---12-x-12-12-12-12-12-12-12-|

|---12-x-12-12-x-x-12-|---12-x-12-12-12-12-12-12-12-|

|---------------------|-----------------------------|

|---------------------|-----------------------------|

|---------------------|-----------------------------|



|---14-x-x-14-x-x-14-|---14-x-14-14-14-14-14-14-14-|

|---12-x-x-12-x-x-12-|---12-x-12-12-12-12-12-12-12-|

|---14-x-x-14-x-x-14-|---14-x-14-14-14-14-14-14-14-|

|--------------------|-----------------------------|

|--------------------|-----------------------------|

|--------------------|-----------------------------|





|-----------------|---------------------------||

|-----------------|---------------------------||

|-----------------|---------------------------||

|---------------4-|------------------4-(0)-4--||

|-----------------|------------2-0-0---(0)----||

|----0-0-3^-0-0---|-0-0-3^-0-0----------------||

* * * * *





||-----------------|----------------|----------------|------------------|

||o-----8---8------|-----8---8------|-----8---8------|-----8---8--------|

||------9---9--x-x-|-x---9-x-9--x-x-|-x-x-9-x-9--x-x-|-x-x-9---9------7-|

||------9---9--x-x-|-x---9-x-9--x-x-|-x-x-9-x-9--x-x-|-x-x-9---9--7h9---|

||o-----7---7--x-x-|-x---7-x-7--x-x-|-x-x-7-x-7--x-x-|-x-x-7---7--------|

||--0-0------------|---0------------|----------------|------------------|



|------------------|--------------------|

|------------------|--------------------|

|------7-----7---7-|-(7)---7-------7\---|

|------------------|--------------------|

|------------------|--------------------|

|-/7-7---7-7---7---|-----7----7-7-(7)\--|



|-----------------|-----------14-14-14-14-14-14----||

|-----------------|-----------12-12-12-12-12-12---o||

|-----3-----3-----|-----------14-14-14-14-14-14----||

|---------------5-|-(5)-5-5-5----------------------||

|---------------5-|-(5)-5-5-5---------------------o||

|-3-3---3-3---3-3-|-(3)-3-3-3----------------------||





Verse 2

|---14-x-x-14-x--x-14-|---14-x-14-14-14-14-14-14-14-|

|---12-x-x-12-x--x-12-|---12-x-12-12-12-12-12-12-12-|

|---14-x-x-14p12-x-14-|---14-x-14-14-14-14-14-14-14-|

|---------------------|-----------------------------|

|---------------------|-----------------------------|

|---------------------|-----------------------------|



|---14-x-14-14-x-x-14-|---14-x-14-14-14-14-14-14-14-|

|---12-x--x-12-x-x-12-|---12-x-12-12-12-12-12-12-12-|

|---12-x-12-12-x-x-12-|---12-x-12-12-12-12-12-12-12-|

|---------------------|-----------------------------|

|---------------------|-----------------------------|

|---------------------|-----------------------------|





|---14-x-x-14-x-x-14-|---14-x-14-14-14-14-14-14-14-|

|---12-x-x-12-x-x-12-|---12-x-12-12-12-12-12-12-12-|

|---14-x-x-14-x-x-14-|---14-x-14-14-14-14-14-14-14-|

|--------------------|-----------------------------|

|--------------------|-----------------------------|

|--------------------|-----------------------------|



|---14-x-14-14-14-14-14-|---14-x-14-14-14-14-14-14-14-|

|---12-x-12-12-12-12-12-|---12-x-12-12-12-12-12-12-12-|

|---12-x-12-12-12-12-12-|---12-x-12-12-12-12-12-12-12-|

|-----------------------|-----------------------------|

|-----------------------|-----------------------------|

|-----------------------|-----------------------------|



|---14-x-x-14-x-x-14-|---14-x-14-14-14-14-14-14-14-|

|----x-x-x--x-x-x--x-|----x-x--x--x--x--x--x--x--x-|

|----x-x-x--x-x-x--x-|----x-x--x-12-12-12-12-12-12-|

|---14-x-x-14-x-x-14-|---14-x-14-14-14-14-14-14-14-|

|--------------------|-----------------------------|

|--------------------|-----------------------------|



|---14-x-14-14-x-x-14-|---14-x-14-14-14-14-14-14-14-|

|---12-x--x-12-x-x-12-|---12-x-12-12-12-12-12-12-12-|

|---12-x-12-12-x-x-12-|---12-x-12-12-12-12-12-12-12-|

|---------------------|-----------------------------|

|---------------------|-----------------------------|

|---------------------|-----------------------------|



|---14-x-x-14-x-x-14-|---14-x-14-14-14-14-14-14-14-|

|---12-x-x-12-x-x-12-|---12-x-12-12-12-12-12-12-12-|

|---14-x-x-14-x-x-14-|---14-x-14-14-14-14-14-14-14-|

|--------------------|-----------------------------|

|--------------------|-----------------------------|

|--------------------|-----------------------------|





||-----------------|----------------------------||

||o----------------|---------------------------o||

||-----------------|----------------------------||

||---------------4-|------------------4-(0)-4---||

||o----------------|------------2-0-0---(0)----o||

||----0-0-3^-0-0---|-0-0-3^-0-0-----------------||

* * * * *



|----------------|----------------|----------------|----------------|

|-----8---8------|-----8---8------|-----8---8------|-----8---8------|

|-----9---9--x-x-|-x---9-x-9--x-x-|-x-x-9-x-9--x-x-|-x-x-9---9--x---|

|-----9---9--x-x-|-x---9-x-9--x-x-|-x-x-9-x-9--x-x-|-x-x-9---9--x---|

|-----7---7--x-x-|-x---7-x-7--x-x-|-x-x-7-x-7--x-x-|-x-x-7---7--x---|

|-0-0------------|---0------------|----------------|--------------5/|



|-----------------|---------------------|-----------------|-------------------|

|-----------------|---------------------|-----------------|-------------------|

|-----7-----7---7-|-(7)---7/11-11\7-7---|-----3-----3-----|---------------0-0-|

|-----------------|---------------------|---------------5-|-(5)-5-5-5-5-5-0-0-|

|-----------------|---------------------|---------------5-|-(5)-5-5-5-5-5-0-0-|

|-7-7---7-7---7---|-----7-------------7\|-3-3---3-3---3-3-|-(3)-3-3-3-3-3-----|



|----------------|----------------|----------------|----------------|

|-----8---8------|-----8---8------|-----8---8------|-----8---8------|

|-----9---9--x-x-|-x---9-x-9--x-x-|-x-x-9-x-9--x-x-|-x-x-9---9--x---|

|-----9---9--x-x-|-x---9-x-9--x-x-|-x-x-9-x-9--x-x-|-x-x-9---9--x---|

|-----7---7--x-x-|-x---7-x-7--x-x-|-x-x-7-x-7--x-x-|-x-x-7---7--x---|

|-0-0------------|---0------------|----------------|--------------5/|



|-----------------|---------------------|

|-----------------|---------------------|

|-----7-----7---7-|-(7)---7/11-11\7-7---|

|-----------------|---------------------|

|-----------------|---------------------|

|-7-7---7-7---7---|-----7-------------7\|



|-----------------|-----------14-14-14-14-14-14---||

|-----------------|-----------12-12-12-12-12-12---||

|-----3-----3-----|-----------14-14-14-14-14-14---||

|---------------5-|-(5)-5-5-5---------------------||

|---------------5-|-(5)-5-5-5---------------------||

|-3-3---3-3---3-3-|-(3)-3-3-3---------------------||





||-----------------|---------------------------|

||o----------------|---------------------------|

||-----------------|---------------------------|

||---------------4-|------------------4-(0)-4--|

||o----------------|------------2-0-0---(0)----|

||----0-0-3^-0-0---|-0-0-3^-0-0----------------|

* * * * *



|-----------------|----------------------------||

|-----------------|---------------------------o||

|-----------------|----------------------------||

|---------------4-|------------------4-(0)-4---||

|-----------------|------------2-0-0---(0)----o||

|----0-0-3^-0-0---|-0-0-3^-0-0-----------------||

* * * * *



Guitar Solo

|-----------|------------------|

|-----------|------------------|

|-----------|------------11h12h|

|-14--------|-14---------------|

|-----------|------------------|

|-----------|------------------|



|---------------------------------|--------------------------|

|---------------------------------|------------------12h14h==|

|-14--(14)-(14)b16r(14)-12-11-12--|-(12)/11--(11)------------|

|---------------------------------|--------------------------|

|---------------------------------|--------------------------|

|---------------------------------|--------------------------|



|---------------------------|-------------|------------------------------------------15p|

|-15--14p12h14h15p14p12h14--|-(14)--------|-14h15p14p12h14-(14)--(14)-12h14h15p14p12----|

|---------------------------|-------------|---------------------------------------------|

|---------------------------|-------------|---------------------------------------------|

|---------------------------|-------------|---------------------------------------------|

|---------------------------|-------------|---------------------------------------------|



|-14p12-15p12-15p12-15p12-15-15b17r=(15)-12---|

|---------------------------------------------|

|---------------------------------------------|

|---------------------------------------------|

|---------------------------------------------|

|---------------------------------------------|



|-15--------------------------|-[14]h[15]-14p12---------------------|

|----x-15b17==(15)--(15)r--x--|-----------------14--12-14b16r=(14)--|

|-----------------------------|-------------------------------------|

|-----------------------------|-------------------------------------|

|-----------------------------|-------------------------------------|

|-----------------------------|-------------------------------------|



|----------------------------------|------------------------------------------------|

|-(14)---12------------------------|------------------------------------------------|

|-----------14p12p11h12h14-(14)-11-|-11h12h14p12-11h12h14p12-11h12-11h12-11h12h14---|

|----------------------------------|------------------------------------------------|

|----------------------------------|------------------------------------------------|

|----------------------------------|------------------------------------------------|



|----------------------------------12-------------------|

|-12h13h15p13-------------12h13h15-------------12h13h15-|

|-------------12p11h12h14-------------12p11h12----------|

|-------------------------------------------------------|

|-------------------------------------------------------|

|-------------------------------------------------------|



|---------------------------------------------------|

|-----15----------15p12-(12)----------------15p13p==|

|-(0)----12h14p12------------12-11-12h13h14---------|

|---------------------------------------------------|

|---------------------------------------------------|

|---------------------------------------------------|



|----------------------------------------|----------------------------------|

|-12h13h15p12h15p12h15p12-15b17----------|-15-12-12-12-12-15-12-12-12-------|

|----------------------------------------|----------------------------14----|

|-------------------------------(0)-(0)--|----------------------------------|

|----------------------------------------|----------------------------------|

|----------------------------------------|----------------------------------|



|-----------------------------------|------------------------------|

|-15-12-12-12-15-12-12-12--------12-|-(12)-15-12-15-12-12-12-12----|

|-------------------------14--14----|------------------------------|

|-----------------------------------|------------------------------|

|-----------------------------------|------------------------------|

|-----------------------------------|------------------------------|



|------------------------------------------|

|-15-12----12-15-12-12-12---------------12-|

|-------12----------------14b15r(14)-14----|

|------------------------------------------|

|------------------------------------------|

|------------------------------------------|



|---------------------------------------------|

|----15-12-15-12-12-12-15-12-12-12------------|

|-14-------------------------------14b15r(14)-|

|---------------------------------------------|

|---------------------------------------------|

|---------------------------------------------|



|-15-12-12-12-15-12-12-12--------12-|-(12)-15-12-15-12-12-12-15-12-12-12-----|

|-------------------------14--14----|------------------------------------14--|

|-----------------------------------|----------------------------------------|

|-----------------------------------|----------------------------------------|

|-----------------------------------|----------------------------------------|

|-----------------------------------|----------------------------------------|



|------------------------------------------------|

|-(14)-15-14-15/17-17-17-17-17-------------------|

|------------------------------14-14-14-14/12-12-|

|------------------------------------------------|

|------------------------------------------------|

|------------------------------------------------|



|--------------------------------------------------|

|--------------------------------------------------|

|-12-12h14p12-12-14-12-12-14/16/14/16-16-16-16-16--|

|--------------------------------------------------|

|--------------------------------------------------|

|--------------------------------------------------|



|-------------[17]-15-17-15-15-17-15-15-15-|

|---[17]-[15]------------------------------|

|------------------------------------------|

|------------------------------------------|

|------------------------------------------|

|------------------------------------------|



|-17-15--------------------------------|

|-------15/17-17-15-15-15-----12-12-12-|

|-------------------------16-----------|

|--------------------------------------|

|--------------------------------------|

|--------------------------------------|



|-15-14-13-12-15-14-13-12-15-14-13-12-------------|

|-------------------------------------15-14-13-12-|

|-------------------------------------------------|

|-------------------------------------------------|

|-------------------------------------------------|

|-------------------------------------------------|



|-------------------------------|

|-------------------------------|

|-15-14-13-12-------------------|

|-------------15-14-13-12-11----|

|-------------------------------|

|-------------------------------|



|-----------------------------------------|----------------------------------|

|-----------------------------------------|----------------12-12-12-12-12-12-|

|------12-12-12-12-14-14b14.5-12-14b14.5==|=(14)r-12-12-12-------------------|

|-/14-------------------------------------|----------14-14-------------------|

|-----------------------------------------|----------------------------------|

|-----------------------------------------|----------------------------------|



|-------------------------------------------------|

|-12-12-12-12-12-12-12-12-12-12-12-12-12-12-12-12-|

|-------------------------------------------------|

|-------------------------------------------------|

|-------------------------------------------------|

|-------------------------------------------------|



|-----------------------------------------||

|-12-12-12-12-12-12-12-12-12-12-12-12-----||

|-----------------------------------------||

|-----------------------------------------||

|-----------------------------------------||

|-------------------------------------14\-||





Interlude

||-----------------|---------------------------|

||o----------------|---------------------------|

||-----------------|---------------------------|

||---------------4-|------------------4-(0)-4--|

||o----------------|------------2-0-0---(0)----|

||----0-0-3^-0-0---|-0-0-3^-0-0----------------|

* * * * *



|-----------------|----------------------------||

|-----------------|---------------------------o||

|-----------------|----------------------------||

|---------------4-|------------------4-(0)-4---||

|-----------------|------------2-0-0---(0)----o||

|----0-0-3^-0-0---|-0-0-3^-0-0-----------------||

* * * * *





Outro

||-------------------|------------------|------------------|------------------|

||o------9----9------|------9----9------|------9----9------|------9----9------|

||--x-x-10---10--x-x-|-x-x-10-x-10--x-x-|-x-x-10-x-10--x-x-|-x-x-10---10--x---|

||--x-x-10---10--x-x-|-x-x-10-x-10--x-x-|-x-x-10-x-10--x-x-|-x-x-10---10--x---|

||o-x-x--8----8--x-x-|-x-x--8-x--8--x-x-|-x-x--8-x--8--x-x-|-x-x--8----8--x---|

||-------------------|------------------|------------------|----------------6/|



|-----------------|--------------------|

|-----------------|--------------------|

|-----8-----8---8-|-(8)---8-------8\---|

|-----------------|--------------------|

|-----------------|--------------------|

|-8-8---8-8---8---|-----8----8-8-(8)\--|



|-----------------|---------------------||

|-----------------|--------------------o||

|-----4-----4-----|-----------------0---||

|---------------6-|-(6)-6-6-6-6-6-6-0---||

|-----------------|-----x-x-x-x-x-x-0--o||

|-4-4---4-4---4---|-----4-4-4-4-4-4-----||



|------------------|------------------|------------------|------------------|

|------9----9------|------9----9------|------9----9------|------9----9------|

|-x-x-10---10--x-x-|-x-x-10-x-10--x-x-|-x-x-10-x-10--x-x-|-x-x-10---10--x---|

|-x-x-10---10--x-x-|-x-x-10-x-10--x-x-|-x-x-10-x-10--x-x-|-x-x-10---10--x---|

|-x-x--8----8--x-x-|-x-x--8-x--8--x-x-|-x-x--8-x--8--x-x-|-x-x--8----8--x---|

|------------------|------------------|------------------|----------------6/|



|-----------------|---------------------|-----------------|--------------------|

|-----------------|---------------------|-----------------|--------------------|

|-----8-----8---8-|-(8)---8/12-12\8-8---|-----4-----4-----|-----------------0--|

|-----------------|---------------------|---------------6-|-(6)-6-6-6-6-6-6-0--|

|-----------------|---------------------|-----------------|-----x-x-x-x-x-x-0--|

|-8-8---8-8---8---|-----8-------------8\|=4-4---4-4---4---|-----4-4-4-4-4-4----|



|------------------|------------------|------------------|-------------------|

|------9----9------|------9----9------|------9----9------|------9----9-------|

|-x-x-10---10--x-x-|-x-x-10-x-10--x-x-|-x-x-10-x-10--x-x-|-x-x-10---10--x----|

|-x-x-10---10--x-x-|-x-x-10-x-10--x-x-|-x-x-10-x-10--x-x-|-x-x-10---10--x----|

|-x-x--8----8--x-x-|-x-x--8-x--8--x-x-|-x-x--8-x--8--x-x-|-x-x--8----8--x----|

|------------------|------------------|------------------|----------------6--|



|-----------------|---------------------|

|-----------------|---------------------|

|-----8-----8---8-|-(8)---8/11-11\8-8---|

|-----------------|---------------------|

|-----------------|---------------------|

|-8-8---8-8---8---|-----8-------------8\|



|-----------------|--------------------||

|-----------------|--------------------||

|-----4-----4-----|-----------------0--||

|---------------6-|-(6)-6-6-6-6-6-6-0--||

|-----------------|-----x-x-x-x-x-x-0--||

|-4-4---4-4---4---|-----4-4-4-4-4-4----||



(Ring Mod & Phaser)

||---------------------|--------------------|

||o--------------------|--------------------|

||--------------0------|-------------0---0--|

||---------------------|--------------------|

||o--------------------|---------3-1--------|

||----1-4b4.5-1------1-|-4b4.5-1------------|



|--------------------|----------------------||

|--------------------|---------------------o||

|-------------0------|-------------0---0----||

|--------------------|----------------------||

|--------------------|---------3-1---------o||

|---1-4b4.5-1------1-|-4b4.5-1--------------||
 

Earth To Bella (Part 2)

Chords:



Cmaj Amin Emin Fmaj Emaj

-0- -0- -0- -1- -0-

-1- -1- -0- -1- -0-

-0- -2- -0- -2- -1-

-2- -2- -2- -3- -2-

-3- -0- -2- -3- -2-

--- --- -0- -1- -0-



Amin Emin

Earth to Bella



Amin Emin

This is a quiet emergency



Amin Emin

Earth to Bella



Amin Emin Fmaj Amin

There's so much more to get then wronged Oohoohh



Cmaj Amin

Earth to Bella



Cmaj Amin

You're treading water successfully



Cmaj Amin

But are you really?



Cmaj Amin Fmaj

Don't you want to see the deep?



Amin

It's not so hard



Emaj Fmaj Amin

Fmaj

Just forgive yourself and feel the water open in



Amin Emin Fmaj

Ooohhhoooohhooooohhho --> repeat until song ends/fades out.
 

Cerca nel sito

Segui Incubus Italia

Segui la Band

Seguici su Twitter

JSN Epic template designed by JoomlaShine.com