You Will Be An Hot Dancer


Chitarra

TABBED BY: Kenny Luong (Questo indirizzo email è protetto dagli spambots. È necessario abilitare JavaScript per vederlo.)
----------------------------------------------------------------


Accordatura: E A D G B E
Chitarra: 6 Corde Elettrica


Intro
/////


E|--4/55-5-x-x-5-5-x-x-5-5-55-55--5--5--|
B|--4/55-5-x-x-5-5-x-x-5-5-55-55--4--4--|
G|--4/55-5-x-x-5-5-x-x-5-5-------5--5---|
D|--------------------------------------|
A|--------------------------------------|
E|--------------------------------------|


E|--4/55-5-x-x-8-5-8-55-55-x-x-5-55-55---5--|
B|--4/55-5-x-x-8-5-8-55-55-x-x-5-55-55---4--|
G|--4/55-5-x-x-------55-55-x-x-5-55-55---5--|
D|------------------------------------------|
A|------------------------------------------|
E|------------------------------------------|


Verse
/////


E|--4/55-5-x-x-5-5-x-x-5-5-55-55--5--5--|
B|--4/55-5-x-x-5-5-x-x-5-5-55-55--4--4--|
G|--4/55-5-x-x-5-5-x-x-5-5-------5--5---|
D|--------------------------------------|
A|--------------------------------------|
E|--------------------------------------|


E|--4/55-5-x-x-8-55-5-x-x-5-x-55-55/--8-88--|
B|--4/55-5-x-x-8-55-5-x-x-5-x-55-55/--8-88--|
G|--4/55-5-x-x---55-5-x-x-5-x-55-55/--8-88--|
D|------------------------------------------|
A|------------------------------------------|
E|------------------------------------------|


E|--4/55-5-x-x-5-5-x-x-5-5-55-55--5--5--|
B|--4/55-5-x-x-5-5-x-x-5-5-55-55--4--4--|
G|--4/55-5-x-x-5-5-x-x-5-5-------5--5---|
D|--------------------------------------|
A|--------------------------------------|
E|--------------------------------------|


E|--4/55-5-x-x-5-x-5-x-5-x-55-55-5-x-55--|
B|--4/55-5-x-x-5-x-5-x-5-x-55-55-5-x-55--|
G|--4/55-5-x-x-5-x-5-x-5-x-5-----5-x-55--|
D|---------------------------------------|
A|---------------------------------------|
E|---------------------------------------|


E|--4/55-5-x-x-8-55-5-x-x-5-x-55-55--|
B|--4/55-5-x-x-8-55-5-x-x-5-x-55-55--|
G|--4/55-5-x-x---55-5-x-x-5-x-55-55--|
D|-----------------------------------|
A|-----------------------------------|
E|-----------------------------------|


E|--4/55-5-x-x-55-5-x-x-5-x-55-55/--8-88--|
B|--4/55-5-x-x-55-5-x-x-5-x-55-55/--8-88--|
G|--4/55-5-x-x-55-5-x-x-5-x-55-55/--8-88--|
D|----------------------------------------|
A|----------------------------------------|
E|----------------------------------------|


E|--4/55-5-x-x-5-5-x-x-5-5-55-55--5--5--|
B|--4/55-5-x-x-5-5-x-x-5-5-55-55--4--4--|
G|--4/55-5-x-x-5-5-x-x-5-5-------5--5---|
D|--------------------------------------|
A|--------------------------------------|
E|--------------------------------------|


E|--4/55-5-x-x-8-5-8-55-55-x-x-5-55-55--|
B|--4/55-5-x-x-8-5-8-55-55-x-x-5-55-55--|
G|--4/55-5-x-x-------55-55-x-x-5-55-55--|
D|--------------------------------------|
A|--------------------------------------|
E|--------------------------------------|


E|--4/55-5-x-x-5-5-x-x-5-5-55-55--5--5--|
B|--4/55-5-x-x-5-5-x-x-5-5-55-55--4--4--|
G|--4/55-5-x-x-5-5-x-x-5-5-------5--5---|
D|--------------------------------------|
A|--------------------------------------|
E|--------------------------------------|


E|--4/55-5-x-x-8-55-5-x-x-5-x-55-55/--8-88--|
B|--4/55-5-x-x-8-55-5-x-x-5-x-55-55/--8-88--|
G|--4/55-5-x-x---55-5-x-x-5-x-55-55/--8-88--|
D|------------------------------------------|
A|------------------------------------------|
E|------------------------------------------|


Chorus/Outro
////////////


E|-------------------|
B|-------------------|
G|-------------------|
D|-------------------|
A|--5-5-6-6-7-7-8-8--|
E|--3-3-4-4-5-5-6-6--|
----<----p.m------>----


E|--5-5-xxx-11/--5-5-xxx-13/--5-5-xxx-11/--5-5-xxx-tr11/tr12/tr13--|
B|--5-5-xxx-11/--5-5-xxx-13/--5-5-xxx-11/--5-5-xxx-tr11/tr12/tr13--|
G|--5-5-xxx-11/--5-5-xxx-13/--5-5-xxx-11/--5-5-xxx-tr11/tr12/tr13--|
D|-----------------------------------------------------------------|
A|-----------------------------------------------------------------|
E|-----------------------------------------------------------------|


Bridge
//////


E|-----------------------------------5--5--5--5--|
B|-----------------------------------4--4--4--4--|
G|-----------------------------------5--5--5--5--|
D|--2-2-2-2--2-2-2--2-2-2-2--2-2-2---------------|
A|--2-2-2-2--2-2-2--2-2-2-2--2-2-2---------------|
E|--0-0-0-0--0-0-0--0-0-0-0--0-0-0---------------|
----<-------------p.m------------>


E|-------------------------------------------------------------|
B|-------------------------------------------------------------|
G|-------------------------------------------------------------|
D|--2-2-2-2--2-2-2--2-2-2-2--2-2-2---4-0-0-2-0-0---------------|
A|--2-2-2-2--2-2-2--2-2-2-2--2-2-2---------------4-0-2-0-0--0--|
E|--0-0-0-0--0-0-0--0-0-0-0--0-0-0-----------------------------|
----<-------------p.m------------>


Basso

TABBED BY: Felix Michalowsky (Questo indirizzo email è protetto dagli spambots. È necessario abilitare JavaScript per vederlo.)
----------------------------------------------------------------


Accordatura: E A D G
Basso: 4 Corde


(XY) = sleppato


/ and \ = slide su e giu


~ = dead-note slide


Intro (play 1x)


G----------------7--------------------------------
D-------------------------------------------------
A-----5--5-5-5------------------------------------
E--------------------5----------------------------


Verse pt.A


G-------------------------------------------------
D----------3---------------3----------------------
A-----5-5-------5-5-------------3-----------------
E-------------5-------1-1-----1-------------------


Verse pt.B


G--------------------------------------------------
D----------3---------------------------------------
A-----5-5---------------------------3-3------------
E-------------5-----3-3--4-4--5-5------------------


Verse pt.C


G------------------------7-7-5-7---7----------------
D----------3-------------------------|--------------
A-----5-5---------5-5--------------5----3-/---------
E-------------5-------------------------------------


Last B-part modified


G----------------------------------------------------------
D----------3------------ (5)----(6)-----(7)----------------
A-----5-5-------------- /--------/-------/-----------------
E-------------5------(33)---(44)---(55)--------------------


Break-Part D


G--------------------------------------------------
D--------------------------------------------------
A----------------------------3-3-------------------
E-----3-3----4-4----5-5----------------------------
Play verse 1 pt´s: A B A C A B A C A B-mod D


Chorus


G--------------------------------------------------
D--------------------------------------------------
A--------------------------------------------------
E------0-0--/--13--\----% 3x || --0-0-/--1--\------


G--------------------------------------------------
D--------------------------------------------------
A--------------------------------------------------
E------0-0--/--13--\-----% 3x ||--0-0-/--1--\------


Fill 1


G-----(7)-------(7)-------(7)-------(7)--------7/8-(7/8)-7/8\7--------
D---------------------------------------------------------------------
A---------(55)------(55)-----(55)------(5`5)--------------------------
E---------------------------------------------------------------------


G--------------------------------6---5-------
D-------------------------------/----/-------
A---(0)-5-5-(0)--4-4-(0)---4----3------------
E--------------------------------------------


G------(8)-----(8)------(8)------(8)---------------5------
D---------------------------------------------------/-----
A----------(6)------(6)------(6)---- (6/6)---5~7----------
E---------------------------------------------------------


G--------------(5)-/-7-\-5--------------------------------
D---------5/7---------------7-\-5-------------------------
A----5/7----------------------------7--6-/-7-\-6----------
E---------------------------------------------------------


Play verse: A C A B A C A B D / Chorus 2X /


Fill 2 (play 4x)


G-----------9---------9----------9----------9----------------------------------------
D----------------------------------------------------8-7----8-7----------------------
A---7-7-7----7-7-7-----7-7-7-----7-7-7------------------------7-\--------------------
E-----------------------------------------------------------------------7-7-7—0-0-0->


Bridge play 4x + 2x / then D (sleppato)


G--------------------------7------------------------------------------------------
D------------------7-7-----------------5-/-7-\--------------------3--3-3----------
A------------5-5-------5----(0)-(55)------------3--3-3-(-&Mac184;-&Mac184;-)-----------3-/-5----
E----15-\-------------------------------------------------------------------------


Chorus 4x

 

Shaft!


Chitarra

TABBED BY: Brian (Questo indirizzo email è protetto dagli spambots. È necessario abilitare JavaScript per vederlo.)
----------------------------------------------------------------
http://members.xoom.com/Froggy15/tabs.htm


Accordatura: D A D G B E
Chitarra: 6 Corde Elettrica


Intro/First Verse

(3x)
  (4x)

--------------------------
----------11P7-7-7H9-9----
-7H9-9-9------------------
--------------------------
--------------------------
--------------------------
poi
---------------------10----
----------11P7-7-7H9-------
-7H9-9-9-------------------
---------------------------
---------------------------
---------------------------


 
poi
--------------------
--------------------
--------------------
--------------------
-7H9-9-9-xxxxxxxxx--
--------------------


Chorus
-------------------------------------------
-------------------------------------------
-------------------------------------------
-2-2-2333---2-2-2333---2-2-2333--2-2-2333--
-2-2-2333---2-2-2333---2-2-2333--2-2-2333--
-2-2-2333---2-2-2333---2-2-2333--2-2-2333--


Second Verse
--------------------------------------
-------------------------9H10---------
-------9H10---9H10-10H11--------------
-2-2----------------------------------
-2-2----------------------------------
-2-2----------------------------------


"Shaft!!!"
-----------------------------------------------
-11H12-12-12--12H13-13-13--11H12-12-12---------
-----------------------------------------------
-----------------------------------------------
-----------------------------------------------
-----------------------------------------------


Solo
-19-----------------------------------------------------------------------
----18--------------------------------------------------------------------
-------16---17-------16-------15----------15----15^-----------------------
---------------16-15----15-14-------15-14----14------------12-13-15-13-12-
-----------------------------------------------------13-14----------------
--------------------------------------------------------------------------


------------------------19--------20-------21--------21-/-24-24-24--------
---------------------------18--------19-------20-----20-/-23-23-23--------
---15-x-15-x-15-16-15---------16--------17-------18--18-/-21-21-21--------
--------------------------------------------------------------------------
--------------------------------------------------------------------------
--------------------------------------------------------------------------


Basso

Non disponibile
 

Take Me To Your Leader


Chitarra

TABBED BY: Brian (Questo indirizzo email è protetto dagli spambots. È necessario abilitare JavaScript per vederlo.)
----------------------------------------------------------------
http://members.xoom.com/Froggy15/tabs.htm


Accordatura: E A D G B E
Chitarra: 6 Corde Elettrica


Intro/First Verse
-------------------------------
-----------121212------12------
------1111--------1111---------
---99--------------------------
-------------------------------
-------------------------------


"What if I was just dreaming..."
---------------------------------------
--15\\\\\\\\\\3------------------------
---slide slow--------------------------
---------------------------------------
---------------------------------------
---------------------------------------


Leading into the Chorus
-------------------------
-------------------------
-------------------------
-------------------------
-5-4-3-4-5-4-3-2---------
-5-4-3-4-5-4-3-2---------
-3-2-1-2-3-2-1-0---------


Chorus
-----------------------------
-----------------------------
-5\444-5\333-5\4-------------
-5\444-5\333-5\4-------------
-3\222-3\222-3\2-------------
-----------------------------


"Take me to your leader...."
---------------------------------------
-11-12---------------------------------
-------11-12-------------------11-12---
-------------11-12-------12-11---------
-------------------11-12---------------
---------------------------------------


After 2nd chorus
---------------------------
---------------------------
-444--666--77--------------
-444--666--77--------------
-222--444--55--------------
---------------------------


Parte dove comincia a cantare veloce
-----------------------------
------12------12-------------
---11------11----------------
-9---------------------------
-----------------------------
-----------------------------


Basso

Re-Tabbed by <The-RZA> (Questo indirizzo email è protetto dagli spambots. È necessario abilitare JavaScript per vederlo.)
----------------------------------------------------------------


Accordatura: E A D G
Basso: 4 Corde


I fixed a few riffs that didn't sound right I put a * next to the Riffs
that I tabbed out and edited. I hope it sound right, well it sounds right
to me, so enjoy, By the way INCUBUS rules!!


Intro/Riff 1
G:-----------------
D:-----------------
A:--5--4--2--------
E:-----------3-----


Riff 2
G:------------------
D:---------------5--
A:----4-5-4----4--4-
E:-3---------3------


Pre-Chorus
G:-----------------
D:-----------------
A:-5-4-3-4--5-4-3-4
E:-----------------


Chorus
G:--------------------------------------------------
D:--------------------------------------------------
A:-3--2-2-2--3--2-2-2--3-2-2--3--2-2-2--3--2-2-2--5-
E:--------------------------------------------------


Riff 3a
G:---------------*--4-2-1-2-1-2\\1--*--------------
D:-------------------------------------------------
A:-2-2-4-4-5---2-2-----------------2-2---2-2-4-4-5-
E:-------------------------------------------------


Riff 3b
G:----------------------------------
D:----------------------------------
A:*-2-2-4-4-5--2-2--2-2-4-4-5--2-2-*
E:----------------------------------


Intro/Riff 1 X8
Riff 2 X4
Pre-Chorus X1
Chorus X4
Intro/Riff 1 X8
Riff 2 X4
Pre-Chorus X2
Chorus X4
rest
Chorus X4
Riff 3a X4
Riff 3b X5
Chorus X4
rest
Chorus X4

Taken from The Bass Tab Archive ~ http://www.basstabarchive.com
 

Version


Chitarra

TABBED BY: Brian (Questo indirizzo email è protetto dagli spambots. È necessario abilitare JavaScript per vederlo.)
----------------------------------------------------------------
http://members.xoom.com/Froggy15/tabs.htm


Accordatura: Standard (E A D G B E)
Chitarra: Paul Reed Smith 6 Corde


Intro
-7-------7--
--7------7--
---7-----7--
----0----0--
------------
------------


Verse
-3-3-xxxxxxx------
-3-3-xxxxxxx------
-3-3-xxxxxxx------
------------------
------------------
------------------

Chorus
------------------------
------------------------
------------------------
-555-xxxxx-555----------
-555-xxxxx-555----------
-333-xxxxx-333----------
after second chorus do this -> -
-------------
-------------
--7----------
--7-7-6------
--5-7-6------
----5-4------


After the next part thats played the same as the verse do this
-------------------------------
-------------------------------
-----------------5-------------
--5555555--4444--5-------------
--5555555--4444--3-------------
--3333333--2222----------------


Solo
--------------------------------------15-15-15\---15-13-15---15-15-17-18-
-------------------------------------------------------------------------
-------13H14-14-14--14-14-15-17-14---------------------------------------
-------------------------------------------------------------------------
-9H10--------------------------------------------------------------------
-------------------------------------------------------------------------


-18-17-15-15-17-18-18-17-15-17-19-22-------------------------------------
-------------------------------------------------------------------------
-------------------------------------------------------------------------
-------------------------------------------------------------------------
-------------------------------------------------------------------------
-------------------------------------------------------------------------


Basso

Accordatura: E A D G
Basso: 4 Corde



La canzone è relativamente corta e non dovrebbe essere difficile
da comprendere

Intro/Verse (play 3x)
G------------------------------------------------------
D------------------------------------------------------
A-------------------------------5-6--5-6--03-5---------
E-----3-3-3-3---6-3---3-3--6-3-------------------------

G------------------------------------------------------
D------------------------------------------------------
A-------------------------------5-6--3-5--01-3---------
E-----3-3-3-3---6-3---3-3--6-3-------------------------

PreChorus
G------------------------------------------------------
D------------------------------------------------------
A------------------------------------------------------
E-----6---6---6-6---6---6---6-6------------------------


Verse (play 2x)
PreChorus (play 1x)


Interlude
G------------------------------------------------------
D------------------------------------------------------
A-------------------5-----4--4-4-----------------------
E-----6---6---6-6-----4-3------------------------------

Chorus (play 3x)
G------------------------------------------------------
D---------------------------------------3--------------
A-------------2-5---------------2-2--5-----------------
E-----3--3-3--------3--3--0--0-------------------------

Bridge
G------------------------------------------------------
D------------------------------------------------------
A-----5---5--5-5-5--5-------3--------------------------
E----------------------2-2-----------------------------


Verse (play 2x)
PreChorus (play 1x)
Verse (play 2x)
PreChorus (play 1x)
Interlude (play 1x)
Chorus (play 3x)

L'ultima volta suonare questa parte, tenere le 
note che metto nelle(), suonarlo solo un ultima volta. 
E' una nota tenuta che riporta al verso.

Bridge Modified (play 4x)
G------------------------------------------------------
D------------------------------------------------------
A-----5---5--5-5-5--5-------3--3-3-3-3---(5)-----------
E----------------------2-2-----------------------------


Verse/Assolo di chitarra(play 2x)
PreChorus (play 1x)


PreChorus Modified
G-------------------------------------------------------
D-------------------------------------------------------
A-------------------------------------------------------
E-----6---6---6-6---6---6---6-6-6-----------------------


PreChorus (play 1x)
Interlude (play 1x)
Chorus (play 3x)


G------------------------------------------------------
D------------------------------------------------------
A-------------2-5--------------------------------------
E-----3--3-3--------3--3--0---1------------------------


Chorus (play 2x)


G------------------------------------------------------
D------------------------------------------------------
A-------------2-5--------------------------------------
E-----3--3-3--------3--3--0--0--1-1-1------------------


Bridge Modified (play 3x)

Azwethinkweiz

Chitarra

Basso

mail: Questo indirizzo email è protetto dagli spambots. È necessario abilitare JavaScript per vederlo.
----------------------------------------------------------------


Accordatura: G E A D
Basso: 4 Corde


Intro G
------------------------------------------------------------------------------- D
------------------------------------------------------------------------------- A
--7-7-5--7--7-7-5--7--7-7-5--7-----------5--5--7-7-5--7\-9--------------------- E
-----------------------------------5--7---------------------------------------- G
x2


--------------------------7--x--18--16--------------------------7-------------- D
--------------------7--9----------------------------------7--9----------------- A
-----5--7-7-5--7-----------------------------5--7-7-5--7----------------------- E
--7----------------------------------------7-----------------------0--9--7----- G


----------------------------------------------------7-7--7-7--7-7--7-7--------- D
------------------------------------------------------------------------------- A
-----5-------------x-7-5--------------------x-7-5------------------------------ E
--7-------7--5--7-----------4-5-6--7--5--7------------------------------------- G


----------------------------------------------------7-6-5---------------------- D
----------------------------------------------------------7-6-6-5-5------------ A
-----5-------------x-7-5--------------------x-7-5-------------------7-7-------- E
--7-------7--5--7-----------4-5-6--7--5--7------------------------------------- G


-------------------------------------------------10-10--10-10--10-10--10-10---- D
-----------5-5--5--5--5-------------------7--5--------------------------------- A
--7--5--7-----------------4-5-6--7--5--7--------------------------------------- E
------------------------------------------------------------------------------- G


------------------------------------------------------------------------------- D
-----------5-5--5--5--5-------------------------------------------------------- A
--7--5--7--------------------------------7--5---------------------------------- E
------------------------ 4-5-6--7--5--7---------4-5-6-7------------------------ G
x3


------------------------------------------------------------------------------- D
------------------------------------------------------------------------------- A
-------------------------------7----------------------------------------------- E
--9-9---9-9---------9-9--9-9--------------------------------------------------- G


------------------------------------------------------------------------------- D
------------------------------------------------------------------------------- A
--5-----5-----5-----5-----5-----5------5--------------------------------------- E
-----7-----7-----7-----7-----7-----7------------------------------------------- G
x2


--------------------------7--x--18--16--------------------------7-------------- D
--------------------7--9----------------------------------7--9----------------- A
-----5--7-7-5--7-----------------------------5--7-7-5--7----------------------- E
--7----------------------------------------7-----------------------0--9--7----- G


----------------------------------------------------7-7--7-7--7-7--7-7--------- D
------------------------------------------------------------------------------- A
-----5-------------x-7-5--------------------x-7-5------------------------------ E
--7-------7--5--7-----------4-5-6--7--5--7------------------------------------- G


----------------------------------------------------7-6-5---------------------- D
----------------------------------------------------------7-6-6-5-5------------ A
-----5-------------x-7-5--------------------x-7-5-------------------7-7-------- E
--7-------7--5--7-----------4-5-6--7--5--7------------------------------------- G


-------------------------------------------------10-10--10-10--10-10--10-10---- D
-----------5-5--5--5--5-------------------7--5--------------------------------- A
--7--5--7-----------------4-5-6--7--5--7--------------------------------------- E
------------------------------------------------------------------------------- G


------------------------------------------------------------------------------- D
-----------5-5--5--5--5-------------------------------------------------------- A
--7--5--7--------------------------------7--5---------------------------------- E
-------------------------4-5-6--7--5--7---------4-5-6-7------------------------ G
x3


------------------------------------------------------------------------------- D
------------------------------------------------------------------------------- A
-------------------------------7----------------------------------------------- E
--9-9---9-9---------9-9--9-9--------------------------------------------------- G


------------------------------------------------------------------------------- D
------------------------------------------------------------------------------- A
--5-----5-----5-----5-----5-----5------5--------------------------------------- E
-----7-----7-----7-----7-----7-----7------------------------------------------- G


--------------------------7--x--18--16--------------------------7-------------- D
--------------------7--9----------------------------------7--9----------------- A
-----5--7-7-5--7-----------------------------5--7-7-5--7----------------------- E
--7----------------------------------------7-----------------------0--9--7----- G


--------------------------7--x--18--16-----------------------9--7-------------- D
--------------------7--9----------------------------------7-------------------- A
-----5--7-7-5--7-----------------------------5--7-7-5--7---------------------5- E
--7----------------------------------------7------------------------9--7--7---- G
Solo


------------------------------------------------------------------------------- D
------6--------6--------6------6----------------------------------------------- A
--4------4-4------4-4-----4-4----------7------7-----7-----6--7----------------- E
-----------------------------------5-----5-5----5-5----5----------------------- G


-------------------------------6----------------------------------------------- D
------6--------6-----5--6---5-------------------------------------------------- A
--4------4-4------4-------4-----------7-------7------7------------------------- E
----------------------------------5-----5-5-----5-5-----5---9\----------------- G
x2


-------------------------------6----------------------------------------------- D
------6--------6-----5--6---5-------------------------------------------------- A
--4------4-4------4-------4------------7------7-----7------6--7---------------- E
-----------------------------------5-----5-5----5-5-----5---------------------- G
x4


--------------------------7--x--18--16--------------------------7-------------- D
--------------------7--9----------------------------------7--9----------------- A
-----5--7-7-5--7-----------------------------5--7-7-5--7----------------------- E
--7----------------------------------------7-----------------------0--9--7----- G


------------------------------------------------------------------------------- D
------------------------------------------------------------------------------- A
----7----7-7-5--7--7-7-5--7--7-7-5--7-----------5--5--7-7-5--7\-9-------------- E
-5--------------------------------------5--7----------------------------------- G


Taken from The Bass Tab Archive ~ http://www.basstabarchive.com

Hilikus


Chitarra

Transcribed by: Robert Seder [Questo indirizzo email è protetto dagli spambots. È necessario abilitare JavaScript per vederlo.]
-------------------------------------------------------------


Accordatura: E A D G B E
Chitarra: 6 Corde Elettrica


This is just the solo between 2:02 and 2:40. 2:02 (overdrive)
E|--15-15--17-17---17-15--15-14--15-14--14--14----------
B|------------------------------------------------------
G|------------------------------------------------------
D|------------------------------------------------------
A|------------------------------------------------------
E|------------------------------------------------------


E|--17-----17------------15-----------------------------
B|-----17------17-----------17----------14h15p14----14--
G|-----------------14----------14---16-----------16-----
D|------------------------------------------------------
A|------------------------------------------------------
E|------------------------------------------------------


E|------------------------------------------------------
B|------------------------------------------------------
G|--17-16-15-14-13-12----12---/14-----------------------
D|--------------------14----14--------------------------
A|------------------------------------------------------
E|------------------------------------------------------ 2:10


E|------------------------------------------------------
B|----------------14^-12----12-12---12------------------
G|--14p12--14p12---------14------------14---------------
D|----------------------------------------14------------
A|-------------------------------------------12---------
E|------------------------------------------------------


E|--------------------------19-15-----------------------
B|--------------------------------17-15-14--------------
G|-----------------------------------------16-14--------
D|------------------------------------------------------
A|--12-/-14-\-12-12\10----------------------------------
E|------------------------------------------------------


E|--19-15---------------------------15-19-17-15---------
B|--------17-15-14---------------------------14---------
G|------------------14/16\14/16/14----------------------
D|------------------------------------------------------
A|------------------------------------------------------
E|------------------------------------------------------ 2:22


(distortion/compressor)
E|------------------------------------------------------
B|--/13~~~~~~~--10/12\10/12\10/12\10/12~~~~-------------
G|------------------------------------------------------
D|------------------------------------------------------
A|------------------------------------------------------
E|------------------------------------------------------


E|-----17----19----20----19---/17-/19-/19\17\----15-----
B|--15----15----15----15----15---------------17--15-----
G|------------------------------------------------------
D|------------------------------------------------------
A|------------------------------------------------------
E|------------------------------------------------------|------------------|3x


E|--22-------22-----------19-----20-19------------------
B|-----20-------20---------------------20---------------
G|--------19-------19---------------------19-17\16------
D|------------------------------------------------------
A|------------------------------------------------------
E|------------------------------------------------------


E|--19-19---17-17------22^-22-20-19----17^--------------
B|----------------------------------20------------------
G|--16-16---14-14---------------------------------------
D|------------------------------------------------------
A|------------------------------------------------------
E|------------------------------------------------------


Basso

Accordatura: E A D G
Basso: 4 Corde   


Intro

G---------5^-----------------------------------------------
D-----5-7-----7-5-7---77-----------------------------------
A--------------------------5-----------12----12\-----------
E-----------------------------5----5/----------------------

This part is tricky. Dirk plays 3 hammer-ons back-to-back
in a set of 4.

G----------------------------------------------------------
D-----5>7-5>7-5>7----5>7-5>7-5>7----5>7-5>7-5>7------------
A----------------------------------------------------------
E----------------------------------------------------------

G-------------------------------------------
D-----5>7-5>7-5>7----7----------------------
A--------------------------7\---------------
E-------------------------------------------



Verse (play 3x)

G-------------4------------------12-------12---------------
D--------5>7-----7-5-7-----11>12----12-11----11\-----------
A----------------------------------------------------------
E-----5-----------------5----------------------------------

G-------------4----------7--8--7--8---------------
D--------5>7-----7-5-7---7--8--7--8---------------
A------------------------5--6--5--6---------------
E-----5-------------------------------------------


Pre Chorus

G----------------------------------------------------------
D----------------------------------------------------------
A------------------3---3-3-3-------------3-3---------------
E-----5--5---5-5---------------5-5---5---------------------

G----------------------------------------------------------
D-----04-5-6-----------------------------------------------
A-----------------------3-3--------------------------------
E--------------5-5--5---------02-3-4-----------------------

G----------------------------------------------------------
D-------------------5/-10---10-10-10-10-10-----------------
A---------------3-3----------------------------------------
E-----5-5---5----------------------------------------------

Chorus

G----------------------------------------------------------
D----------------------------------------------------------
A---------------3-3----------------3-3---------------------
E-----5-5---5------------5-5---5---------------------------


G----------------------------------------------------------
D----------------------------------------------------------
A---------------3-3----------------3-3--3--3--3-3----------
E-----5-5---5------------5-5---5---------------------------

Questa è la parte dove fanno un piccolo break tra i versi.
E' uguale al verso originale a parte il break.

Verse (play 1x)

Dopo aver suonato il verso 1x, si va direttamente alla seconda
parte del verso originale. Se ascoltate il Cd capirete cosa intendo 

2a parte del verso

G--------------12-------12--------------4------------------
D--------11>12----12-11----11\-----5>7-----7-5-7-----------
A----------------------------------------------------------
E-----5-------------------------5--------------------------

G-----7--8--7--8-------------------------------------------
D-----7--8--7--8-------------------------------------------
A-----5--6--5--6-------------------------------------------
E----------------------------------------------------------

Dopo aver suonato la seconda parte del verso, seguire
l'ordine delle parti sottostante. Poi la canzone va essenzialmente 
nello stesso ordine. A parte per l'intro 
dove usano un bridge per l'assolo di chitarra e un paio 
di altre parti che il basso fa durante l'assolo.

Verse (play 1x)
Pre Chorus (play 1x)
Chorus (play 2x)

Bridge

G---------5^-----------------------------------------------
D-----5-7-----7-5-7---77-----------------------------------
A--------------------------5-------------------------------
E----------------------------------------------------------

Assolo di chitarra


G-------------4------------------12-------12---------------
D--------5>7-----7-5-7-----11>12----12-11----11\-----------
A----------------------------------------------------------
E-----5-----------------5----------------------------------

G-------------4------------------11----11-12-14-14-12-11---
D--------5>7-----7-5-7-----11>12----12---------------------
A----------------------------------------------------------
E-----5-----------------5----------------------------------

G-------------4------------------12-------12---------------
D--------5>7-----7-5-7-----11>12----12-11----11\-----------
A----------------------------------------------------------
E-----5-----------------5----------------------------------

G-------------4------------------11----11-12-14-14-12-11---
D--------5>7-----7-5-7-----11>12----12---------------------
A----------------------------------------------------------
E-----5-----------------5----------------------------------

G----------------------------------------------------------
D---------------04-5-6-------------------------------------
A----------3-3------------------3-3------------------------
E-----5-5---------------5-5--5-------02-3-4----------------

G----------------------------------------------------------
D------------------04-5-6----------------------------------
A-------------3-3------------------3-3---------------------
E-----5-5--5---------------5-5--5--------------------------

G----------------------------------------------------------
D-----5/-10---10-10-10-10-10-------------------------------
A----------------------------------------------------------
E----------------------------------------------------------

G----------------------------------------------------------
D---------------------------------04-5-6-------------------
A----------3-3---------------3-3---------------------------
E-----5-5-------02-3-4--5-5--------------------------------

G----------------------------------------------------------
D---------------------------------5/-10---10-10-10-10-10---
A----------3-3---------------3-3---------------------------
E-----5-5-------02-3-4--5-5--------------------------------

Questa parte viene subito dopo l'assolo di chitarra e fa le stesse 
cose fino al prossimo chorus.

DJ solo (play 4x)

G-------------------------------------4--------------------
D---------------------------------4>5---5-4----------------
A----------3-3---------------3-3------------3--------------
E-----5-5-------02-3-4--5-5--------------------------------


Pre Chorus 1x
Chorus 1x

Le prossime 2 parti sono modificate per il finale, ma solo 
un po'.

Modified Pre Chorus (play 4x)
G----------------------------------------------------------
D---------------04-5-6-------------------------------------
A----------3-3---------------------------------------------
E-----5-5--------------------------------------------------

Modified Chorus (play 4x)
G----------------------------------------------------------
D----------------------------------------------------------
A---------------3-3--3--3--3-3-----------------------------
E-----5-5---5----------------------------------------------

La fine di questa canzone è la stessa del bridge della chitarra.
Assolo e intro.

End
G---------5^-----------------------------------------------
D-----5-7-----7-5-7---77-----------------------------------
A--------------------------5-------------------------------
E-------------------------------5--------------------------

Cerca nel sito

Segui Incubus Italia

Segui la Band

Seguici su Twitter

JSN Epic template designed by JoomlaShine.com